ISO-10303-21;
HEADER;
FILE_DESCRIPTION (( 'STEP AP214' ),
    '1' );
FILE_NAME ('B4545A_mid.STEP',
    '2021-04-15T16:11:55',
    ( '' ),
    ( '' ),
    'SwSTEP 2.0',
    'SolidWorks 2020',
    '' );
FILE_SCHEMA (( 'AUTOMOTIVE_DESIGN' ));
ENDSEC;

DATA;
#1 = ORIENTED_EDGE ( 'NONE', *, *, #325, .F. ) ;
#2 = CARTESIAN_POINT ( 'NONE',  ( 437.5000000000000000, -50.00000000000000000, -437.5000000000000000 ) ) ;
#3 = DIRECTION ( 'NONE',  ( -1.000000000000000000, 0.000000000000000000, -1.944757260063685305E-18 ) ) ;
#4 = EDGE_CURVE ( 'NONE', #15, #314, #54, .T. ) ;
#5 = PRODUCT_DEFINITION_FORMATION_WITH_SPECIFIED_SOURCE ( 'ANY', '', #289, .NOT_KNOWN. ) ;
#6 = PRESENTATION_STYLE_ASSIGNMENT (( #139 ) ) ;
#7 = VERTEX_POINT ( 'NONE', #107 ) ;
#8 = DIRECTION ( 'NONE',  ( 3.172065784643301967E-14, 0.000000000000000000, -1.000000000000000000 ) ) ;
#9 = ORIENTED_EDGE ( 'NONE', *, *, #98, .F. ) ;
#10 = ORIENTED_EDGE ( 'NONE', *, *, #287, .T. ) ;
#11 = CYLINDRICAL_SURFACE ( 'NONE', #64, 10.50000000000000888 ) ;
#12 = CARTESIAN_POINT ( 'NONE',  ( 12.49999999999999467, -50.00000000000000000, -437.5000000000000000 ) ) ;
#13 = ORIENTED_EDGE ( 'NONE', *, *, #147, .T. ) ;
#14 = CARTESIAN_POINT ( 'NONE',  ( 12.49999999999999645, -50.00000000000000000, -2.000000000000000000 ) ) ;
#15 = VERTEX_POINT ( 'NONE', #189 ) ;
#16 = DIRECTION ( 'NONE',  ( 0.000000000000000000, 0.000000000000000000, -1.000000000000000000 ) ) ;
#17 = UNCERTAINTY_MEASURE_WITH_UNIT (LENGTH_MEASURE( 1.000000000000000082E-05 ), #225, 'distance_accuracy_value', 'NONE');
#18 = LINE ( 'NONE', #131, #235 ) ;
#19 = CLOSED_SHELL ( 'NONE', ( #292, #322, #119, #58, #143, #172, #103, #72, #90, #202 ) ) ;
#20 = DIRECTION ( 'NONE',  ( 0.000000000000000000, 0.000000000000000000, -1.000000000000000000 ) ) ;
#21 = AXIS2_PLACEMENT_3D ( 'NONE', #195, #331, #8 ) ;
#22 = DIRECTION ( 'NONE',  ( 1.000000000000000000, 0.000000000000000000, -0.000000000000000000 ) ) ;
#23 = UNCERTAINTY_MEASURE_WITH_UNIT (LENGTH_MEASURE( 1.000000000000000082E-05 ), #335, 'distance_accuracy_value', 'NONE');
#24 = DIRECTION ( 'NONE',  ( -0.000000000000000000, -1.000000000000000000, -0.000000000000000000 ) ) ;
#25 = ORIENTED_EDGE ( 'NONE', *, *, #253, .T. ) ;
#26 = CARTESIAN_POINT ( 'NONE',  ( 1.999999999999999112, -50.00000000000000000, -2.000000000000000000 ) ) ;
#27 = EDGE_CURVE ( 'NONE', #15, #306, #49, .T. ) ;
#28 = DIRECTION ( 'NONE',  ( 1.000000000000000000, 0.000000000000000000, 0.000000000000000000 ) ) ;
#29 = VECTOR ( 'NONE', #232, 1000.000000000000000 ) ;
#30 = AXIS2_PLACEMENT_3D ( 'NONE', #136, #115, #255 ) ;
#31 = FACE_OUTER_BOUND ( 'NONE', #210, .T. ) ;
#32 = EDGE_CURVE ( 'NONE', #278, #124, #18, .T. ) ;
#33 = VECTOR ( 'NONE', #86, 1000.000000000000000 ) ;
#34 = ORIENTED_EDGE ( 'NONE', *, *, #280, .F. ) ;
#35 = ORIENTED_EDGE ( 'NONE', *, *, #38, .F. ) ;
#36 = EDGE_LOOP ( 'NONE', ( #117, #13, #302, #251 ) ) ;
#37 = CARTESIAN_POINT ( 'NONE',  ( 2.000000000000000000, -50.00000000000000000, -448.0000000000000000 ) ) ;
#38 = EDGE_CURVE ( 'NONE', #118, #65, #217, .T. ) ;
#39 = UNCERTAINTY_MEASURE_WITH_UNIT (LENGTH_MEASURE( 1.000000000000000082E-05 ), #249, 'distance_accuracy_value', 'NONE');
#40 = CARTESIAN_POINT ( 'NONE',  ( 437.4999999999998863, -50.00000000000000000, -2.000000000000000000 ) ) ;
#41 = CARTESIAN_POINT ( 'NONE',  ( 12.49999999999999645, -50.00000000000000000, -12.49999999999999645 ) ) ;
#42 = CARTESIAN_POINT ( 'NONE',  ( 448.0000000000000000, -50.00000000000000000, -437.5000000000000000 ) ) ;
#43 = EDGE_LOOP ( 'NONE', ( #116, #228, #283, #276 ) ) ;
#44 = EDGE_CURVE ( 'NONE', #65, #15, #218, .T. ) ;
#45 = STYLED_ITEM ( 'NONE', ( #260 ), #160 ) ;
#46 = MECHANICAL_DESIGN_GEOMETRIC_PRESENTATION_REPRESENTATION (  '', ( #152 ), #213 ) ;
#47 =( NAMED_UNIT ( * ) PLANE_ANGLE_UNIT ( ) SI_UNIT ( $, .RADIAN. ) );
#48 = ORIENTED_EDGE ( 'NONE', *, *, #327, .T. ) ;
#49 = LINE ( 'NONE', #293, #76 ) ;
#50 = DIRECTION ( 'NONE',  ( 0.000000000000000000, 1.000000000000000000, 0.000000000000000000 ) ) ;
#51 = CIRCLE ( 'NONE', #122, 10.50000000000000000 ) ;
#52 = CARTESIAN_POINT ( 'NONE',  ( 0.000000000000000000, 0.000000000000000000, 0.000000000000000000 ) ) ;
#53 = COLOUR_RGB ( '',0.7960784313725489669, 0.8235294117647058432, 0.9372549019607843146 ) ;
#54 = LINE ( 'NONE', #78, #145 ) ;
#55 = CARTESIAN_POINT ( 'NONE',  ( 1.999999999999999112, -50.00000000000000000, -12.49999999999999289 ) ) ;
#56 = PRODUCT_DEFINITION_CONTEXT ( 'detailed design', #176, 'design' ) ;
#57 = DIRECTION ( 'NONE',  ( 0.000000000000000000, 0.000000000000000000, -1.000000000000000000 ) ) ;
#58 = ADVANCED_FACE ( 'NONE', ( #341 ), #315, .T. ) ;
#59 = CARTESIAN_POINT ( 'NONE',  ( 2.000000000000000000, -50.00000000000000000, -437.4999999999998863 ) ) ;
#60 = VECTOR ( 'NONE', #342, 1000.000000000000000 ) ;
#61 =( NAMED_UNIT ( * ) SI_UNIT ( $, .STERADIAN. ) SOLID_ANGLE_UNIT ( ) );
#62 = PRODUCT_DEFINITION ( 'UNKNOWN', '', #5, #56 ) ;
#63 = ORIENTED_EDGE ( 'NONE', *, *, #32, .F. ) ;
#64 = AXIS2_PLACEMENT_3D ( 'NONE', #12, #74, #240 ) ;
#65 = VERTEX_POINT ( 'NONE', #106 ) ;
#66 = ADVANCED_BREP_SHAPE_REPRESENTATION ( 'B4545A_mid', ( #160, #206 ), #303 ) ;
#67 = EDGE_LOOP ( 'NONE', ( #336, #250, #239, #48 ) ) ;
#68 = DIRECTION ( 'NONE',  ( 0.000000000000000000, 0.000000000000000000, -1.000000000000000000 ) ) ;
#69 = AXIS2_PLACEMENT_3D ( 'NONE', #290, #50, #123 ) ;
#70 = AXIS2_PLACEMENT_3D ( 'NONE', #37, #199, #92 ) ;
#71 = FILL_AREA_STYLE_COLOUR ( '', #151 ) ;
#72 = ADVANCED_FACE ( 'NONE', ( #215 ), #187, .T. ) ;
#73 = DIRECTION ( 'NONE',  ( 0.000000000000000000, 0.000000000000000000, 1.000000000000000000 ) ) ;
#74 = DIRECTION ( 'NONE',  ( 0.000000000000000000, 1.000000000000000000, 0.000000000000000000 ) ) ;
#75 = ORIENTED_EDGE ( 'NONE', *, *, #98, .T. ) ;
#76 = VECTOR ( 'NONE', #161, 1000.000000000000000 ) ;
#77 = CARTESIAN_POINT ( 'NONE',  ( 448.0000000000000000, 0.000000000000000000, -12.49999999999999467 ) ) ;
#78 = CARTESIAN_POINT ( 'NONE',  ( 2.000000000000000000, -50.00000000000000000, -437.5000000000000000 ) ) ;
#79 = PLANE ( 'NONE',  #256 ) ;
#80 = DIRECTION ( 'NONE',  ( 0.000000000000000000, 0.000000000000000000, 1.000000000000000000 ) ) ;
#81 = CARTESIAN_POINT ( 'NONE',  ( 437.5000000000000000, -50.00000000000000000, -2.000000000000000000 ) ) ;
#82 = EDGE_LOOP ( 'NONE', ( #288, #75, #219, #10, #63, #169, #34, #326 ) ) ;
#83 = AXIS2_PLACEMENT_3D ( 'NONE', #241, #128, #130 ) ;
#84 = AXIS2_PLACEMENT_3D ( 'NONE', #2, #291, #57 ) ;
#85 = ORIENTED_EDGE ( 'NONE', *, *, #193, .F. ) ;
#86 = DIRECTION ( 'NONE',  ( -1.944757260063685305E-18, -0.000000000000000000, 1.000000000000000000 ) ) ;
#87 = EDGE_CURVE ( 'NONE', #263, #306, #334, .T. ) ;
#88 = CARTESIAN_POINT ( 'NONE',  ( 12.49999999999999289, -50.00000000000000000, -2.000000000000000000 ) ) ;
#89 = CARTESIAN_POINT ( 'NONE',  ( 0.000000000000000000, 0.000000000000000000, 0.000000000000000000 ) ) ;
#90 = ADVANCED_FACE ( 'NONE', ( #279 ), #307, .T. ) ;
#91 = VERTEX_POINT ( 'NONE', #40 ) ;
#92 = DIRECTION ( 'NONE',  ( -1.000000000000000000, 0.000000000000000000, -0.000000000000000000 ) ) ;
#93 = ORIENTED_EDGE ( 'NONE', *, *, #316, .T. ) ;
#94 = PLANE ( 'NONE',  #70 ) ;
#95 = ORIENTED_EDGE ( 'NONE', *, *, #316, .F. ) ;
#96 = PRODUCT_CONTEXT ( 'NONE', #138, 'mechanical' ) ;
#97 = ORIENTED_EDGE ( 'NONE', *, *, #87, .F. ) ;
#98 = EDGE_CURVE ( 'NONE', #314, #118, #222, .T. ) ;
#99 = DIRECTION ( 'NONE',  ( 0.000000000000000000, -1.000000000000000000, 0.000000000000000000 ) ) ;
#100 = ORIENTED_EDGE ( 'NONE', *, *, #27, .T. ) ;
#101 = PLANE ( 'NONE',  #229 ) ;
#102 = DIRECTION ( 'NONE',  ( 0.000000000000000000, 0.000000000000000000, -1.000000000000000000 ) ) ;
#103 = ADVANCED_FACE ( 'NONE', ( #211 ), #11, .T. ) ;
#104 = AXIS2_PLACEMENT_3D ( 'NONE', #41, #153, #73 ) ;
#105 = LINE ( 'NONE', #262, #212 ) ;
#106 = CARTESIAN_POINT ( 'NONE',  ( 12.49999999999999289, 0.000000000000000000, -448.0000000000000000 ) ) ;
#107 = CARTESIAN_POINT ( 'NONE',  ( 437.4999999999998863, -50.00000000000000000, -448.0000000000000000 ) ) ;
#108 = CARTESIAN_POINT ( 'NONE',  ( 1.999999999999999112, -50.00000000000000000, -2.000000000000000000 ) ) ;
#109 = VECTOR ( 'NONE', #265, 1000.000000000000000 ) ;
#110 = FACE_OUTER_BOUND ( 'NONE', #266, .T. ) ;
#111 = DIRECTION ( 'NONE',  ( -1.944757260063685305E-18, 0.000000000000000000, 1.000000000000000000 ) ) ;
#112 = EDGE_CURVE ( 'NONE', #171, #185, #105, .T. ) ;
#113 = CARTESIAN_POINT ( 'NONE',  ( 448.0000000000000000, -50.00000000000000000, -12.49999999999999822 ) ) ;
#114 = AXIS2_PLACEMENT_3D ( 'NONE', #311, #259, #16 ) ;
#115 = DIRECTION ( 'NONE',  ( -0.000000000000000000, 1.000000000000000000, -0.000000000000000000 ) ) ;
#116 = ORIENTED_EDGE ( 'NONE', *, *, #162, .T. ) ;
#117 = ORIENTED_EDGE ( 'NONE', *, *, #253, .F. ) ;
#118 = VERTEX_POINT ( 'NONE', #284 ) ;
#119 = ADVANCED_FACE ( 'NONE', ( #282 ), #258, .T. ) ;
#120 = DIRECTION ( 'NONE',  ( 0.000000000000000000, 0.000000000000000000, -1.000000000000000000 ) ) ;
#121 = CARTESIAN_POINT ( 'NONE',  ( 2.000000000000000000, 0.000000000000000000, -448.0000000000000000 ) ) ;
#122 = AXIS2_PLACEMENT_3D ( 'NONE', #234, #313, #120 ) ;
#123 = DIRECTION ( 'NONE',  ( 0.000000000000000000, 0.000000000000000000, 1.000000000000000000 ) ) ;
#124 = VERTEX_POINT ( 'NONE', #127 ) ;
#125 = EDGE_CURVE ( 'NONE', #142, #65, #146, .T. ) ;
#126 = ORIENTED_EDGE ( 'NONE', *, *, #327, .F. ) ;
#127 = CARTESIAN_POINT ( 'NONE',  ( 448.0000000000000000, -50.00000000000000000, -437.4999999999998863 ) ) ;
#128 = DIRECTION ( 'NONE',  ( -0.000000000000000000, 1.000000000000000000, -0.000000000000000000 ) ) ;
#129 = LINE ( 'NONE', #108, #33 ) ;
#130 = DIRECTION ( 'NONE',  ( 0.000000000000000000, 0.000000000000000000, -1.000000000000000000 ) ) ;
#131 = CARTESIAN_POINT ( 'NONE',  ( 448.0000000000000000, -50.00000000000000000, -2.000000000000000000 ) ) ;
#132 = ORIENTED_EDGE ( 'NONE', *, *, #287, .F. ) ;
#133 = DIRECTION ( 'NONE',  ( 1.000000000000000000, 0.000000000000000000, 0.000000000000000000 ) ) ;
#134 = DIRECTION ( 'NONE',  ( 0.000000000000000000, 1.000000000000000000, -0.000000000000000000 ) ) ;
#135 = CIRCLE ( 'NONE', #159, 10.50000000000000178 ) ;
#136 = CARTESIAN_POINT ( 'NONE',  ( 12.49999999999999645, 0.000000000000000000, -12.49999999999999645 ) ) ;
#137 = EDGE_CURVE ( 'NONE', #124, #185, #178, .T. ) ;
#138 = APPLICATION_CONTEXT ( 'automotive_design' ) ;
#139 = SURFACE_STYLE_USAGE ( .BOTH. , #272 ) ;
#140 = AXIS2_PLACEMENT_3D ( 'NONE', #246, #3, #111 ) ;
#141 = EDGE_CURVE ( 'NONE', #299, #171, #51, .T. ) ;
#142 = VERTEX_POINT ( 'NONE', #180 ) ;
#143 = ADVANCED_FACE ( 'NONE', ( #338 ), #101, .T. ) ;
#144 = APPLICATION_PROTOCOL_DEFINITION ( 'draft international standard', 'automotive_design', 1998, #138 ) ;
#145 = VECTOR ( 'NONE', #24, 1000.000000000000000 ) ;
#146 = LINE ( 'NONE', #121, #158 ) ;
#147 = EDGE_CURVE ( 'NONE', #329, #305, #238, .T. ) ;
#148 = SURFACE_SIDE_STYLE ('',( #207 ) ) ;
#149 = DIRECTION ( 'NONE',  ( 0.000000000000000000, -0.000000000000000000, -1.000000000000000000 ) ) ;
#150 = ORIENTED_EDGE ( 'NONE', *, *, #27, .F. ) ;
#151 = COLOUR_RGB ( '',0.7960784313725489669, 0.8235294117647058432, 0.9372549019607843146 ) ;
#152 = STYLED_ITEM ( 'NONE', ( #6 ), #66 ) ;
#153 = DIRECTION ( 'NONE',  ( 0.000000000000000000, 1.000000000000000000, 0.000000000000000000 ) ) ;
#154 = EDGE_LOOP ( 'NONE', ( #254, #157, #95, #97 ) ) ;
#155 = CARTESIAN_POINT ( 'NONE',  ( 12.49999999999999467, -50.00000000000000000, -448.0000000000000000 ) ) ;
#156 = CARTESIAN_POINT ( 'NONE',  ( 437.5000000000000000, -50.00000000000000000, -12.49999999999999822 ) ) ;
#157 = ORIENTED_EDGE ( 'NONE', *, *, #147, .F. ) ;
#158 = VECTOR ( 'NONE', #204, 1000.000000000000000 ) ;
#159 = AXIS2_PLACEMENT_3D ( 'NONE', #192, #221, #20 ) ;
#160 = MANIFOLD_SOLID_BREP ( 'Fillet2', #19 ) ;
#161 = DIRECTION ( 'NONE',  ( -1.944757260063685305E-18, -0.000000000000000000, 1.000000000000000000 ) ) ;
#162 = EDGE_CURVE ( 'NONE', #7, #118, #243, .T. ) ;
#163 = CARTESIAN_POINT ( 'NONE',  ( 448.0000000000000000, -50.00000000000000000, -12.49999999999999467 ) ) ;
#164 = DIRECTION ( 'NONE',  ( 0.000000000000000000, -0.000000000000000000, -1.000000000000000000 ) ) ;
#165 = FACE_OUTER_BOUND ( 'NONE', #203, .T. ) ;
#166 = SURFACE_STYLE_FILL_AREA ( #223 ) ;
#167 = ORIENTED_EDGE ( 'NONE', *, *, #208, .F. ) ;
#168 =( NAMED_UNIT ( * ) PLANE_ANGLE_UNIT ( ) SI_UNIT ( $, .RADIAN. ) );
#169 = ORIENTED_EDGE ( 'NONE', *, *, #208, .T. ) ;
#170 = FILL_AREA_STYLE_COLOUR ( '', #53 ) ;
#171 = VERTEX_POINT ( 'NONE', #77 ) ;
#172 = ADVANCED_FACE ( 'NONE', ( #31 ), #79, .F. ) ;
#173 = SHAPE_DEFINITION_REPRESENTATION ( #244, #66 ) ;
#174 = DIRECTION ( 'NONE',  ( 0.000000000000000000, 1.000000000000000000, 0.000000000000000000 ) ) ;
#175 = PRESENTATION_LAYER_ASSIGNMENT (  '', '', ( #152 ) ) ;
#176 = APPLICATION_CONTEXT ( 'automotive_design' ) ;
#177 = FILL_AREA_STYLE ('',( #71 ) ) ;
#178 = LINE ( 'NONE', #42, #29 ) ;
#179 = EDGE_LOOP ( 'NONE', ( #9, #226, #332, #35 ) ) ;
#180 = CARTESIAN_POINT ( 'NONE',  ( 437.4999999999998863, 0.000000000000000000, -448.0000000000000000 ) ) ;
#181 = ORIENTED_EDGE ( 'NONE', *, *, #87, .T. ) ;
#182 =( GEOMETRIC_REPRESENTATION_CONTEXT ( 3 ) GLOBAL_UNCERTAINTY_ASSIGNED_CONTEXT ( ( #23 ) ) GLOBAL_UNIT_ASSIGNED_CONTEXT ( ( #335, #47, #242 ) ) REPRESENTATION_CONTEXT ( 'NONE', 'WORKASPACE' ) );
#183 = AXIS2_PLACEMENT_3D ( 'NONE', #271, #270, #186 ) ;
#184 = DIRECTION ( 'NONE',  ( 1.000000000000000000, -0.000000000000000000, 0.000000000000000000 ) ) ;
#185 = VERTEX_POINT ( 'NONE', #214 ) ;
#186 = DIRECTION ( 'NONE',  ( 0.000000000000000000, 0.000000000000000000, 1.000000000000000000 ) ) ;
#187 = CYLINDRICAL_SURFACE ( 'NONE', #69, 10.50000000000000888 ) ;
#188 = DIRECTION ( 'NONE',  ( -0.000000000000000000, -1.000000000000000000, -0.000000000000000000 ) ) ;
#189 = CARTESIAN_POINT ( 'NONE',  ( 2.000000000000000000, 0.000000000000000000, -437.4999999999998863 ) ) ;
#190 = CARTESIAN_POINT ( 'NONE',  ( 1.999999999999999112, 0.000000000000000000, -2.000000000000000000 ) ) ;
#191 = CYLINDRICAL_SURFACE ( 'NONE', #183, 10.50000000000000000 ) ;
#192 = CARTESIAN_POINT ( 'NONE',  ( 12.49999999999999645, -50.00000000000000000, -12.49999999999999645 ) ) ;
#193 = EDGE_CURVE ( 'NONE', #91, #299, #318, .T. ) ;
#194 = VECTOR ( 'NONE', #134, 1000.000000000000000 ) ;
#195 = CARTESIAN_POINT ( 'NONE',  ( 437.5000000000000000, 0.000000000000000000, -437.5000000000000000 ) ) ;
#196 = ORIENTED_EDGE ( 'NONE', *, *, #141, .T. ) ;
#197 = LINE ( 'NONE', #113, #294 ) ;
#198 = EDGE_LOOP ( 'NONE', ( #132, #286, #1, #231 ) ) ;
#199 = DIRECTION ( 'NONE',  ( 0.000000000000000000, 0.000000000000000000, -1.000000000000000000 ) ) ;
#200 = ORIENTED_EDGE ( 'NONE', *, *, #141, .F. ) ;
#201 = APPLICATION_PROTOCOL_DEFINITION ( 'draft international standard', 'automotive_design', 1998, #176 ) ;
#202 = ADVANCED_FACE ( 'NONE', ( #165 ), #191, .T. ) ;
#203 = EDGE_LOOP ( 'NONE', ( #167, #126, #200, #85 ) ) ;
#204 = DIRECTION ( 'NONE',  ( -1.000000000000000000, -0.000000000000000000, -0.000000000000000000 ) ) ;
#205 = AXIS2_PLACEMENT_3D ( 'NONE', #339, #80, #22 ) ;
#206 = AXIS2_PLACEMENT_3D ( 'NONE', #89, #323, #227 ) ;
#207 = SURFACE_STYLE_FILL_AREA ( #177 ) ;
#208 = EDGE_CURVE ( 'NONE', #278, #91, #275, .T. ) ;
#209 = DIRECTION ( 'NONE',  ( 0.000000000000000000, 0.000000000000000000, -1.000000000000000000 ) ) ;
#210 = EDGE_LOOP ( 'NONE', ( #319, #312, #100, #93, #25, #196, #337, #261 ) ) ;
#211 = FACE_OUTER_BOUND ( 'NONE', #179, .T. ) ;
#212 = VECTOR ( 'NONE', #68, 1000.000000000000000 ) ;
#213 =( GEOMETRIC_REPRESENTATION_CONTEXT ( 3 ) GLOBAL_UNCERTAINTY_ASSIGNED_CONTEXT ( ( #17 ) ) GLOBAL_UNIT_ASSIGNED_CONTEXT ( ( #225, #324, #300 ) ) REPRESENTATION_CONTEXT ( 'NONE', 'WORKASPACE' ) );
#214 = CARTESIAN_POINT ( 'NONE',  ( 448.0000000000000000, 0.000000000000000000, -437.4999999999998863 ) ) ;
#215 = FACE_OUTER_BOUND ( 'NONE', #198, .T. ) ;
#216 = PRODUCT_RELATED_PRODUCT_CATEGORY ( 'part', '', ( #289 ) ) ;
#217 = LINE ( 'NONE', #155, #109 ) ;
#218 = CIRCLE ( 'NONE', #83, 10.50000000000000888 ) ;
#219 = ORIENTED_EDGE ( 'NONE', *, *, #162, .F. ) ;
#220 = DIRECTION ( 'NONE',  ( 0.000000000000000000, -1.000000000000000000, 0.000000000000000000 ) ) ;
#221 = DIRECTION ( 'NONE',  ( 0.000000000000000000, -1.000000000000000000, 0.000000000000000000 ) ) ;
#222 = CIRCLE ( 'NONE', #114, 10.50000000000000888 ) ;
#223 = FILL_AREA_STYLE ('',( #170 ) ) ;
#224 = EDGE_CURVE ( 'NONE', #305, #263, #135, .T. ) ;
#225 =( LENGTH_UNIT ( ) NAMED_UNIT ( * ) SI_UNIT ( .MILLI., .METRE. ) );
#226 = ORIENTED_EDGE ( 'NONE', *, *, #4, .F. ) ;
#227 = DIRECTION ( 'NONE',  ( 1.000000000000000000, 0.000000000000000000, 0.000000000000000000 ) ) ;
#228 = ORIENTED_EDGE ( 'NONE', *, *, #38, .T. ) ;
#229 = AXIS2_PLACEMENT_3D ( 'NONE', #333, #99, #149 ) ;
#230 = CIRCLE ( 'NONE', #84, 10.50000000000000888 ) ;
#231 = ORIENTED_EDGE ( 'NONE', *, *, #137, .F. ) ;
#232 = DIRECTION ( 'NONE',  ( 0.000000000000000000, 1.000000000000000000, 0.000000000000000000 ) ) ;
#233 = EDGE_CURVE ( 'NONE', #314, #263, #129, .T. ) ;
#234 = CARTESIAN_POINT ( 'NONE',  ( 437.5000000000000000, 0.000000000000000000, -12.49999999999999822 ) ) ;
#235 = VECTOR ( 'NONE', #102, 1000.000000000000000 ) ;
#236 = VECTOR ( 'NONE', #188, 1000.000000000000000 ) ;
#237 = ORIENTED_EDGE ( 'NONE', *, *, #4, .T. ) ;
#238 = LINE ( 'NONE', #14, #301 ) ;
#239 = ORIENTED_EDGE ( 'NONE', *, *, #112, .F. ) ;
#240 = DIRECTION ( 'NONE',  ( 0.000000000000000000, 0.000000000000000000, 1.000000000000000000 ) ) ;
#241 = CARTESIAN_POINT ( 'NONE',  ( 12.49999999999999467, 0.000000000000000000, -437.5000000000000000 ) ) ;
#242 =( NAMED_UNIT ( * ) SI_UNIT ( $, .STERADIAN. ) SOLID_ANGLE_UNIT ( ) );
#243 = LINE ( 'NONE', #269, #60 ) ;
#244 = PRODUCT_DEFINITION_SHAPE ( 'NONE', 'NONE',  #62 ) ;
#245 = VECTOR ( 'NONE', #133, 1000.000000000000000 ) ;
#246 = CARTESIAN_POINT ( 'NONE',  ( 1.999999999999999112, -50.00000000000000000, -2.000000000000000000 ) ) ;
#247 = PLANE ( 'NONE',  #140 ) ;
#248 = AXIS2_PLACEMENT_3D ( 'NONE', #156, #220, #268 ) ;
#249 =( LENGTH_UNIT ( ) NAMED_UNIT ( * ) SI_UNIT ( .MILLI., .METRE. ) );
#250 = ORIENTED_EDGE ( 'NONE', *, *, #137, .T. ) ;
#251 = ORIENTED_EDGE ( 'NONE', *, *, #193, .T. ) ;
#252 = FACE_OUTER_BOUND ( 'NONE', #43, .T. ) ;
#253 = EDGE_CURVE ( 'NONE', #329, #299, #296, .T. ) ;
#254 = ORIENTED_EDGE ( 'NONE', *, *, #224, .F. ) ;
#255 = DIRECTION ( 'NONE',  ( 0.000000000000000000, 0.000000000000000000, -1.000000000000000000 ) ) ;
#256 = AXIS2_PLACEMENT_3D ( 'NONE', #52, #320, #164 ) ;
#257 = EDGE_CURVE ( 'NONE', #142, #7, #340, .T. ) ;
#258 = PLANE ( 'NONE',  #308 ) ;
#259 = DIRECTION ( 'NONE',  ( 0.000000000000000000, -1.000000000000000000, 0.000000000000000000 ) ) ;
#260 = PRESENTATION_STYLE_ASSIGNMENT (( #310 ) ) ;
#261 = ORIENTED_EDGE ( 'NONE', *, *, #325, .T. ) ;
#262 = CARTESIAN_POINT ( 'NONE',  ( 448.0000000000000000, 0.000000000000000000, -2.000000000000000000 ) ) ;
#263 = VERTEX_POINT ( 'NONE', #55 ) ;
#264 = CARTESIAN_POINT ( 'NONE',  ( 1.999999999999999112, -50.00000000000000000, -12.49999999999999645 ) ) ;
#265 = DIRECTION ( 'NONE',  ( 0.000000000000000000, 1.000000000000000000, 0.000000000000000000 ) ) ;
#266 = EDGE_LOOP ( 'NONE', ( #150, #237, #274, #181 ) ) ;
#267 = CIRCLE ( 'NONE', #21, 10.50000000000000888 ) ;
#268 = DIRECTION ( 'NONE',  ( 0.000000000000000000, 0.000000000000000000, -1.000000000000000000 ) ) ;
#269 = CARTESIAN_POINT ( 'NONE',  ( 2.000000000000000000, -50.00000000000000000, -448.0000000000000000 ) ) ;
#270 = DIRECTION ( 'NONE',  ( 0.000000000000000000, 1.000000000000000000, -0.000000000000000000 ) ) ;
#271 = CARTESIAN_POINT ( 'NONE',  ( 437.5000000000000000, -50.00000000000000000, -12.49999999999999822 ) ) ;
#272 = SURFACE_SIDE_STYLE ('',( #166 ) ) ;
#273 = VECTOR ( 'NONE', #174, 1000.000000000000000 ) ;
#274 = ORIENTED_EDGE ( 'NONE', *, *, #233, .T. ) ;
#275 = CIRCLE ( 'NONE', #248, 10.50000000000000000 ) ;
#276 = ORIENTED_EDGE ( 'NONE', *, *, #257, .T. ) ;
#277 = CARTESIAN_POINT ( 'NONE',  ( 12.49999999999999289, 0.000000000000000000, -2.000000000000000000 ) ) ;
#278 = VERTEX_POINT ( 'NONE', #163 ) ;
#279 = FACE_OUTER_BOUND ( 'NONE', #154, .T. ) ;
#280 = EDGE_CURVE ( 'NONE', #305, #91, #317, .T. ) ;
#281 = CARTESIAN_POINT ( 'NONE',  ( 448.0000000000000000, -50.00000000000000000, -2.000000000000000000 ) ) ;
#282 = FACE_OUTER_BOUND ( 'NONE', #67, .T. ) ;
#283 = ORIENTED_EDGE ( 'NONE', *, *, #125, .F. ) ;
#284 = CARTESIAN_POINT ( 'NONE',  ( 12.49999999999999289, -50.00000000000000000, -448.0000000000000000 ) ) ;
#285 = CIRCLE ( 'NONE', #30, 10.50000000000000178 ) ;
#286 = ORIENTED_EDGE ( 'NONE', *, *, #257, .F. ) ;
#287 = EDGE_CURVE ( 'NONE', #7, #124, #230, .T. ) ;
#288 = ORIENTED_EDGE ( 'NONE', *, *, #233, .F. ) ;
#289 = PRODUCT ( 'B4545A_mid', 'B4545A_mid', '', ( #96 ) ) ;
#290 = CARTESIAN_POINT ( 'NONE',  ( 437.5000000000000000, -50.00000000000000000, -437.5000000000000000 ) ) ;
#291 = DIRECTION ( 'NONE',  ( 0.000000000000000000, -1.000000000000000000, 0.000000000000000000 ) ) ;
#292 = ADVANCED_FACE ( 'NONE', ( #110 ), #247, .T. ) ;
#293 = CARTESIAN_POINT ( 'NONE',  ( 1.999999999999999112, 0.000000000000000000, -2.000000000000000000 ) ) ;
#294 = VECTOR ( 'NONE', #304, 1000.000000000000000 ) ;
#295 = CARTESIAN_POINT ( 'NONE',  ( 437.5000000000000000, -50.00000000000000000, -448.0000000000000000 ) ) ;
#296 = LINE ( 'NONE', #190, #330 ) ;
#297 = CARTESIAN_POINT ( 'NONE',  ( 1.999999999999999112, 0.000000000000000000, -12.49999999999999289 ) ) ;
#298 = MECHANICAL_DESIGN_GEOMETRIC_PRESENTATION_REPRESENTATION (  '', ( #45 ), #182 ) ;
#299 = VERTEX_POINT ( 'NONE', #321 ) ;
#300 =( NAMED_UNIT ( * ) SI_UNIT ( $, .STERADIAN. ) SOLID_ANGLE_UNIT ( ) );
#301 = VECTOR ( 'NONE', #309, 1000.000000000000000 ) ;
#302 = ORIENTED_EDGE ( 'NONE', *, *, #280, .T. ) ;
#303 =( GEOMETRIC_REPRESENTATION_CONTEXT ( 3 ) GLOBAL_UNCERTAINTY_ASSIGNED_CONTEXT ( ( #39 ) ) GLOBAL_UNIT_ASSIGNED_CONTEXT ( ( #249, #168, #61 ) ) REPRESENTATION_CONTEXT ( 'NONE', 'WORKASPACE' ) );
#304 = DIRECTION ( 'NONE',  ( -0.000000000000000000, -1.000000000000000000, -0.000000000000000000 ) ) ;
#305 = VERTEX_POINT ( 'NONE', #88 ) ;
#306 = VERTEX_POINT ( 'NONE', #297 ) ;
#307 = CYLINDRICAL_SURFACE ( 'NONE', #104, 10.50000000000000000 ) ;
#308 = AXIS2_PLACEMENT_3D ( 'NONE', #281, #184, #209 ) ;
#309 = DIRECTION ( 'NONE',  ( -0.000000000000000000, -1.000000000000000000, -0.000000000000000000 ) ) ;
#310 = SURFACE_STYLE_USAGE ( .BOTH. , #148 ) ;
#311 = CARTESIAN_POINT ( 'NONE',  ( 12.49999999999999467, -50.00000000000000000, -437.5000000000000000 ) ) ;
#312 = ORIENTED_EDGE ( 'NONE', *, *, #44, .T. ) ;
#313 = DIRECTION ( 'NONE',  ( -0.000000000000000000, 1.000000000000000000, -0.000000000000000000 ) ) ;
#314 = VERTEX_POINT ( 'NONE', #59 ) ;
#315 = PLANE ( 'NONE',  #205 ) ;
#316 = EDGE_CURVE ( 'NONE', #306, #329, #285, .T. ) ;
#317 = LINE ( 'NONE', #26, #245 ) ;
#318 = LINE ( 'NONE', #81, #194 ) ;
#319 = ORIENTED_EDGE ( 'NONE', *, *, #125, .T. ) ;
#320 = DIRECTION ( 'NONE',  ( 0.000000000000000000, -1.000000000000000000, 0.000000000000000000 ) ) ;
#321 = CARTESIAN_POINT ( 'NONE',  ( 437.4999999999998863, 0.000000000000000000, -2.000000000000000000 ) ) ;
#322 = ADVANCED_FACE ( 'NONE', ( #252 ), #94, .T. ) ;
#323 = DIRECTION ( 'NONE',  ( 0.000000000000000000, 0.000000000000000000, 1.000000000000000000 ) ) ;
#324 =( NAMED_UNIT ( * ) PLANE_ANGLE_UNIT ( ) SI_UNIT ( $, .RADIAN. ) );
#325 = EDGE_CURVE ( 'NONE', #185, #142, #267, .T. ) ;
#326 = ORIENTED_EDGE ( 'NONE', *, *, #224, .T. ) ;
#327 = EDGE_CURVE ( 'NONE', #171, #278, #197, .T. ) ;
#328 = PRESENTATION_LAYER_ASSIGNMENT (  '', '', ( #45 ) ) ;
#329 = VERTEX_POINT ( 'NONE', #277 ) ;
#330 = VECTOR ( 'NONE', #28, 1000.000000000000000 ) ;
#331 = DIRECTION ( 'NONE',  ( -0.000000000000000000, 1.000000000000000000, -0.000000000000000000 ) ) ;
#332 = ORIENTED_EDGE ( 'NONE', *, *, #44, .F. ) ;
#333 = CARTESIAN_POINT ( 'NONE',  ( 0.000000000000000000, -50.00000000000000000, 0.000000000000000000 ) ) ;
#334 = LINE ( 'NONE', #264, #273 ) ;
#335 =( LENGTH_UNIT ( ) NAMED_UNIT ( * ) SI_UNIT ( .MILLI., .METRE. ) );
#336 = ORIENTED_EDGE ( 'NONE', *, *, #32, .T. ) ;
#337 = ORIENTED_EDGE ( 'NONE', *, *, #112, .T. ) ;
#338 = FACE_OUTER_BOUND ( 'NONE', #82, .T. ) ;
#339 = CARTESIAN_POINT ( 'NONE',  ( 1.999999999999999112, -50.00000000000000000, -2.000000000000000000 ) ) ;
#340 = LINE ( 'NONE', #295, #236 ) ;
#341 = FACE_OUTER_BOUND ( 'NONE', #36, .T. ) ;
#342 = DIRECTION ( 'NONE',  ( -1.000000000000000000, -0.000000000000000000, -0.000000000000000000 ) ) ;
ENDSEC;
END-ISO-10303-21;
