ISO-10303-21;
HEADER;
FILE_DESCRIPTION (( 'STEP AP214' ),
    '1' );
FILE_NAME ('ruler.STEP',
    '2021-03-15T16:49:40',
    ( '' ),
    ( '' ),
    'SwSTEP 2.0',
    'SolidWorks 2020',
    '' );
FILE_SCHEMA (( 'AUTOMOTIVE_DESIGN' ));
ENDSEC;

DATA;
#1 = APPLICATION_CONTEXT ( 'automotive_design' ) ;
#2 = LINE ( 'NONE', #82, #97 ) ;
#3 = PRESENTATION_LAYER_ASSIGNMENT (  '', '', ( #9 ) ) ;
#4 =( LENGTH_UNIT ( ) NAMED_UNIT ( * ) SI_UNIT ( .MILLI., .METRE. ) );
#5 = PRODUCT_DEFINITION_CONTEXT ( 'detailed design', #141, 'design' ) ;
#6 = MECHANICAL_DESIGN_GEOMETRIC_PRESENTATION_REPRESENTATION (  '', ( #178 ), #180 ) ;
#7 = EDGE_CURVE ( 'NONE', #93, #60, #37, .T. ) ;
#8 = APPLICATION_PROTOCOL_DEFINITION ( 'draft international standard', 'automotive_design', 1998, #1 ) ;
#9 = STYLED_ITEM ( 'NONE', ( #138 ), #149 ) ;
#10 = DIRECTION ( 'NONE',  ( 1.156482317317871478E-16, 0.000000000000000000, 1.000000000000000000 ) ) ;
#11 = DIRECTION ( 'NONE',  ( 0.000000000000000000, 1.000000000000000000, 0.000000000000000000 ) ) ;
#12 = EDGE_LOOP ( 'NONE', ( #15, #199, #67, #50 ) ) ;
#13 = APPLICATION_PROTOCOL_DEFINITION ( 'draft international standard', 'automotive_design', 1998, #141 ) ;
#14 = VECTOR ( 'NONE', #163, 1000.000000000000000 ) ;
#15 = ORIENTED_EDGE ( 'NONE', *, *, #165, .T. ) ;
#16 = SURFACE_SIDE_STYLE ('',( #90 ) ) ;
#17 = EDGE_LOOP ( 'NONE', ( #78, #45, #174, #47 ) ) ;
#18 = CARTESIAN_POINT ( 'NONE',  ( -3.000000000000001776, 0.1499999999999999944, -15.00000000000000000 ) ) ;
#19 = VERTEX_POINT ( 'NONE', #58 ) ;
#20 = FACE_OUTER_BOUND ( 'NONE', #198, .T. ) ;
#21 = AXIS2_PLACEMENT_3D ( 'NONE', #200, #119, #31 ) ;
#22 = DIRECTION ( 'NONE',  ( 1.000000000000000000, 0.000000000000000000, -0.000000000000000000 ) ) ;
#23 = CARTESIAN_POINT ( 'NONE',  ( 2.999999999999998224, 0.1499999999999999944, -15.00000000000000000 ) ) ;
#24 = VECTOR ( 'NONE', #42, 1000.000000000000000 ) ;
#25 = VECTOR ( 'NONE', #201, 1000.000000000000000 ) ;
#26 = PLANE ( 'NONE',  #100 ) ;
#27 = EDGE_CURVE ( 'NONE', #137, #93, #120, .T. ) ;
#28 = CARTESIAN_POINT ( 'NONE',  ( 2.999999999999998224, 0.1499999999999999944, -15.00000000000000000 ) ) ;
#29 = FACE_OUTER_BOUND ( 'NONE', #195, .T. ) ;
#30 = ORIENTED_EDGE ( 'NONE', *, *, #84, .T. ) ;
#31 = DIRECTION ( 'NONE',  ( 0.000000000000000000, -0.000000000000000000, 1.000000000000000000 ) ) ;
#32 = ORIENTED_EDGE ( 'NONE', *, *, #70, .F. ) ;
#33 = SHAPE_DEFINITION_REPRESENTATION ( #88, #142 ) ;
#34 = LINE ( 'NONE', #176, #187 ) ;
#35 = ORIENTED_EDGE ( 'NONE', *, *, #7, .F. ) ;
#36 = DIRECTION ( 'NONE',  ( -0.000000000000000000, -1.000000000000000000, -0.000000000000000000 ) ) ;
#37 = LINE ( 'NONE', #57, #167 ) ;
#38 = PRODUCT_RELATED_PRODUCT_CATEGORY ( 'part', '', ( #40 ) ) ;
#39 = CARTESIAN_POINT ( 'NONE',  ( -2.999999999999998224, 0.1499999999999999944, 15.00000000000000000 ) ) ;
#40 = PRODUCT ( 'ruler', 'ruler', '', ( #77 ) ) ;
#41 = PLANE ( 'NONE',  #48 ) ;
#42 = DIRECTION ( 'NONE',  ( 1.156482317317871478E-16, 0.000000000000000000, 1.000000000000000000 ) ) ;
#43 = FILL_AREA_STYLE_COLOUR ( '', #66 ) ;
#44 = CARTESIAN_POINT ( 'NONE',  ( -3.000000000000001776, 0.1499999999999999944, -15.00000000000000000 ) ) ;
#45 = ORIENTED_EDGE ( 'NONE', *, *, #99, .F. ) ;
#46 = DIRECTION ( 'NONE',  ( 1.156482317317871478E-16, 0.000000000000000000, 1.000000000000000000 ) ) ;
#47 = ORIENTED_EDGE ( 'NONE', *, *, #194, .T. ) ;
#48 = AXIS2_PLACEMENT_3D ( 'NONE', #56, #114, #22 ) ;
#49 = ADVANCED_FACE ( 'NONE', ( #181 ), #170, .F. ) ;
#50 = ORIENTED_EDGE ( 'NONE', *, *, #99, .T. ) ;
#51 = SURFACE_STYLE_USAGE ( .BOTH. , #80 ) ;
#52 = LINE ( 'NONE', #39, #14 ) ;
#53 = DIRECTION ( 'NONE',  ( -0.000000000000000000, -1.000000000000000000, -0.000000000000000000 ) ) ;
#54 = CARTESIAN_POINT ( 'NONE',  ( 3.000000000000001776, 0.1499999999999999944, 15.00000000000000000 ) ) ;
#55 = ADVANCED_FACE ( 'NONE', ( #179 ), #26, .F. ) ;
#56 = CARTESIAN_POINT ( 'NONE',  ( -3.000000000000001776, 0.1499999999999999944, -15.00000000000000000 ) ) ;
#57 = CARTESIAN_POINT ( 'NONE',  ( -3.000000000000001776, 0.000000000000000000, -15.00000000000000000 ) ) ;
#58 = CARTESIAN_POINT ( 'NONE',  ( -2.999999999999998224, 0.1499999999999999944, 15.00000000000000000 ) ) ;
#59 = DIRECTION ( 'NONE',  ( 1.000000000000000000, 0.000000000000000000, -1.156482317317871478E-16 ) ) ;
#60 = VERTEX_POINT ( 'NONE', #132 ) ;
#61 =( NAMED_UNIT ( * ) SI_UNIT ( $, .STERADIAN. ) SOLID_ANGLE_UNIT ( ) );
#62 = ADVANCED_FACE ( 'NONE', ( #29 ), #152, .F. ) ;
#63 = PLANE ( 'NONE',  #156 ) ;
#64 = ORIENTED_EDGE ( 'NONE', *, *, #27, .F. ) ;
#65 = CARTESIAN_POINT ( 'NONE',  ( 3.000000000000001776, 0.000000000000000000, 15.00000000000000000 ) ) ;
#66 = COLOUR_RGB ( '',0.7921568627450980005, 0.8196078431372548767, 0.9333333333333333481 ) ;
#67 = ORIENTED_EDGE ( 'NONE', *, *, #76, .F. ) ;
#68 = CARTESIAN_POINT ( 'NONE',  ( -2.999999999999998224, 0.1499999999999999944, 15.00000000000000000 ) ) ;
#69 = COLOUR_RGB ( '',0.7921568627450980005, 0.8196078431372548767, 0.9333333333333333481 ) ;
#70 = EDGE_CURVE ( 'NONE', #19, #91, #110, .T. ) ;
#71 =( LENGTH_UNIT ( ) NAMED_UNIT ( * ) SI_UNIT ( .MILLI., .METRE. ) );
#72 = DIRECTION ( 'NONE',  ( 0.000000000000000000, -0.000000000000000000, 1.000000000000000000 ) ) ;
#73 = ORIENTED_EDGE ( 'NONE', *, *, #76, .T. ) ;
#74 = AXIS2_PLACEMENT_3D ( 'NONE', #131, #146, #144 ) ;
#75 = DIRECTION ( 'NONE',  ( 1.000000000000000000, 0.000000000000000000, 0.000000000000000000 ) ) ;
#76 = EDGE_CURVE ( 'NONE', #105, #19, #34, .T. ) ;
#77 = PRODUCT_CONTEXT ( 'NONE', #1, 'mechanical' ) ;
#78 = ORIENTED_EDGE ( 'NONE', *, *, #7, .T. ) ;
#79 = ORIENTED_EDGE ( 'NONE', *, *, #151, .F. ) ;
#80 = SURFACE_SIDE_STYLE ('',( #168 ) ) ;
#81 = DIRECTION ( 'NONE',  ( -1.000000000000000000, -0.000000000000000000, -0.000000000000000000 ) ) ;
#82 = CARTESIAN_POINT ( 'NONE',  ( 2.999999999999998224, 0.1499999999999999944, -15.00000000000000000 ) ) ;
#83 = UNCERTAINTY_MEASURE_WITH_UNIT (LENGTH_MEASURE( 1.000000000000000082E-05 ), #71, 'distance_accuracy_value', 'NONE');
#84 = EDGE_CURVE ( 'NONE', #19, #117, #52, .T. ) ;
#85 =( NAMED_UNIT ( * ) PLANE_ANGLE_UNIT ( ) SI_UNIT ( $, .RADIAN. ) );
#86 = LINE ( 'NONE', #23, #129 ) ;
#87 = DIRECTION ( 'NONE',  ( -1.000000000000000000, 0.000000000000000000, 1.156482317317871478E-16 ) ) ;
#88 = PRODUCT_DEFINITION_SHAPE ( 'NONE', 'NONE',  #143 ) ;
#89 = VERTEX_POINT ( 'NONE', #136 ) ;
#90 = SURFACE_STYLE_FILL_AREA ( #158 ) ;
#91 = VERTEX_POINT ( 'NONE', #160 ) ;
#92 = DIRECTION ( 'NONE',  ( -1.156482317317871478E-16, 0.000000000000000000, -1.000000000000000000 ) ) ;
#93 = VERTEX_POINT ( 'NONE', #197 ) ;
#94 = DIRECTION ( 'NONE',  ( -1.000000000000000000, -0.000000000000000000, -0.000000000000000000 ) ) ;
#95 = EDGE_CURVE ( 'NONE', #89, #105, #184, .T. ) ;
#96 = PLANE ( 'NONE',  #21 ) ;
#97 = VECTOR ( 'NONE', #148, 1000.000000000000000 ) ;
#98 = CARTESIAN_POINT ( 'NONE',  ( -3.000000000000001776, 0.000000000000000000, -15.00000000000000000 ) ) ;
#99 = EDGE_CURVE ( 'NONE', #105, #60, #109, .T. ) ;
#100 = AXIS2_PLACEMENT_3D ( 'NONE', #28, #87, #10 ) ;
#101 = VECTOR ( 'NONE', #36, 1000.000000000000000 ) ;
#102 = FILL_AREA_STYLE ('',( #43 ) ) ;
#103 = VECTOR ( 'NONE', #53, 1000.000000000000000 ) ;
#104 = LINE ( 'NONE', #98, #24 ) ;
#105 = VERTEX_POINT ( 'NONE', #18 ) ;
#106 = EDGE_LOOP ( 'NONE', ( #123, #155, #139, #134 ) ) ;
#107 = MECHANICAL_DESIGN_GEOMETRIC_PRESENTATION_REPRESENTATION (  '', ( #9 ), #186 ) ;
#108 = ORIENTED_EDGE ( 'NONE', *, *, #172, .F. ) ;
#109 = LINE ( 'NONE', #173, #101 ) ;
#110 = LINE ( 'NONE', #68, #126 ) ;
#111 = PRODUCT_DEFINITION_FORMATION_WITH_SPECIFIED_SOURCE ( 'ANY', '', #40, .NOT_KNOWN. ) ;
#112 = CLOSED_SHELL ( 'NONE', ( #55, #177, #130, #62, #113, #49 ) ) ;
#113 = ADVANCED_FACE ( 'NONE', ( #20 ), #96, .T. ) ;
#114 = DIRECTION ( 'NONE',  ( 0.000000000000000000, 0.000000000000000000, 1.000000000000000000 ) ) ;
#115 = UNCERTAINTY_MEASURE_WITH_UNIT (LENGTH_MEASURE( 1.000000000000000082E-05 ), #4, 'distance_accuracy_value', 'NONE');
#116 =( NAMED_UNIT ( * ) SI_UNIT ( $, .STERADIAN. ) SOLID_ANGLE_UNIT ( ) );
#117 = VERTEX_POINT ( 'NONE', #125 ) ;
#118 = DIRECTION ( 'NONE',  ( 0.000000000000000000, 0.000000000000000000, 1.000000000000000000 ) ) ;
#119 = DIRECTION ( 'NONE',  ( 0.000000000000000000, 1.000000000000000000, 0.000000000000000000 ) ) ;
#120 = LINE ( 'NONE', #161, #25 ) ;
#121 = CARTESIAN_POINT ( 'NONE',  ( -3.000000000000001776, 0.1499999999999999944, -15.00000000000000000 ) ) ;
#122 = ORIENTED_EDGE ( 'NONE', *, *, #151, .T. ) ;
#123 = ORIENTED_EDGE ( 'NONE', *, *, #27, .T. ) ;
#124 =( GEOMETRIC_REPRESENTATION_CONTEXT ( 3 ) GLOBAL_UNCERTAINTY_ASSIGNED_CONTEXT ( ( #83 ) ) GLOBAL_UNIT_ASSIGNED_CONTEXT ( ( #71, #166, #116 ) ) REPRESENTATION_CONTEXT ( 'NONE', 'WORKASPACE' ) );
#125 = CARTESIAN_POINT ( 'NONE',  ( -2.999999999999998224, 0.000000000000000000, 15.00000000000000000 ) ) ;
#126 = VECTOR ( 'NONE', #75, 1000.000000000000000 ) ;
#127 = CARTESIAN_POINT ( 'NONE',  ( -2.999999999999998224, 0.000000000000000000, 15.00000000000000000 ) ) ;
#128 = LINE ( 'NONE', #54, #103 ) ;
#129 = VECTOR ( 'NONE', #147, 1000.000000000000000 ) ;
#130 = ADVANCED_FACE ( 'NONE', ( #154 ), #63, .F. ) ;
#131 = CARTESIAN_POINT ( 'NONE',  ( -2.999999999999998224, 0.1499999999999999944, 15.00000000000000000 ) ) ;
#132 = CARTESIAN_POINT ( 'NONE',  ( -3.000000000000001776, 0.000000000000000000, -15.00000000000000000 ) ) ;
#133 = AXIS2_PLACEMENT_3D ( 'NONE', #157, #118, #175 ) ;
#134 = ORIENTED_EDGE ( 'NONE', *, *, #172, .T. ) ;
#135 = AXIS2_PLACEMENT_3D ( 'NONE', #169, #11, #72 ) ;
#136 = CARTESIAN_POINT ( 'NONE',  ( 2.999999999999998224, 0.1499999999999999944, -15.00000000000000000 ) ) ;
#137 = VERTEX_POINT ( 'NONE', #65 ) ;
#138 = PRESENTATION_STYLE_ASSIGNMENT (( #183 ) ) ;
#139 = ORIENTED_EDGE ( 'NONE', *, *, #188, .F. ) ;
#140 =( LENGTH_UNIT ( ) NAMED_UNIT ( * ) SI_UNIT ( .MILLI., .METRE. ) );
#141 = APPLICATION_CONTEXT ( 'automotive_design' ) ;
#142 = ADVANCED_BREP_SHAPE_REPRESENTATION ( 'ruler', ( #149, #133 ), #124 ) ;
#143 = PRODUCT_DEFINITION ( 'UNKNOWN', '', #111, #5 ) ;
#144 = DIRECTION ( 'NONE',  ( -1.000000000000000000, 0.000000000000000000, -0.000000000000000000 ) ) ;
#145 = ORIENTED_EDGE ( 'NONE', *, *, #165, .F. ) ;
#146 = DIRECTION ( 'NONE',  ( 0.000000000000000000, 0.000000000000000000, -1.000000000000000000 ) ) ;
#147 = DIRECTION ( 'NONE',  ( -1.156482317317871478E-16, -0.000000000000000000, -1.000000000000000000 ) ) ;
#148 = DIRECTION ( 'NONE',  ( -0.000000000000000000, -1.000000000000000000, -0.000000000000000000 ) ) ;
#149 = MANIFOLD_SOLID_BREP ( 'Boss-Extrude1', #112 ) ;
#150 =( NAMED_UNIT ( * ) SI_UNIT ( $, .STERADIAN. ) SOLID_ANGLE_UNIT ( ) );
#151 = EDGE_CURVE ( 'NONE', #117, #137, #164, .T. ) ;
#152 = PLANE ( 'NONE',  #74 ) ;
#153 =( NAMED_UNIT ( * ) PLANE_ANGLE_UNIT ( ) SI_UNIT ( $, .RADIAN. ) );
#154 = FACE_OUTER_BOUND ( 'NONE', #12, .T. ) ;
#155 = ORIENTED_EDGE ( 'NONE', *, *, #194, .F. ) ;
#156 = AXIS2_PLACEMENT_3D ( 'NONE', #44, #59, #92 ) ;
#157 = CARTESIAN_POINT ( 'NONE',  ( 0.000000000000000000, 0.000000000000000000, 0.000000000000000000 ) ) ;
#158 = FILL_AREA_STYLE ('',( #171 ) ) ;
#159 = ORIENTED_EDGE ( 'NONE', *, *, #188, .T. ) ;
#160 = CARTESIAN_POINT ( 'NONE',  ( 3.000000000000001776, 0.1499999999999999944, 15.00000000000000000 ) ) ;
#161 = CARTESIAN_POINT ( 'NONE',  ( 2.999999999999998224, 0.000000000000000000, -15.00000000000000000 ) ) ;
#162 = PRESENTATION_STYLE_ASSIGNMENT (( #51 ) ) ;
#163 = DIRECTION ( 'NONE',  ( -0.000000000000000000, -1.000000000000000000, -0.000000000000000000 ) ) ;
#164 = LINE ( 'NONE', #127, #193 ) ;
#165 = EDGE_CURVE ( 'NONE', #60, #117, #104, .T. ) ;
#166 =( NAMED_UNIT ( * ) PLANE_ANGLE_UNIT ( ) SI_UNIT ( $, .RADIAN. ) );
#167 = VECTOR ( 'NONE', #94, 1000.000000000000000 ) ;
#168 = SURFACE_STYLE_FILL_AREA ( #102 ) ;
#169 = CARTESIAN_POINT ( 'NONE',  ( 0.000000000000000000, 0.000000000000000000, 0.000000000000000000 ) ) ;
#170 = PLANE ( 'NONE',  #135 ) ;
#171 = FILL_AREA_STYLE_COLOUR ( '', #69 ) ;
#172 = EDGE_CURVE ( 'NONE', #91, #137, #128, .T. ) ;
#173 = CARTESIAN_POINT ( 'NONE',  ( -3.000000000000001776, 0.1499999999999999944, -15.00000000000000000 ) ) ;
#174 = ORIENTED_EDGE ( 'NONE', *, *, #95, .F. ) ;
#175 = DIRECTION ( 'NONE',  ( 1.000000000000000000, 0.000000000000000000, 0.000000000000000000 ) ) ;
#176 = CARTESIAN_POINT ( 'NONE',  ( -3.000000000000001776, 0.1499999999999999944, -15.00000000000000000 ) ) ;
#177 = ADVANCED_FACE ( 'NONE', ( #192 ), #41, .F. ) ;
#178 = STYLED_ITEM ( 'NONE', ( #162 ), #142 ) ;
#179 = FACE_OUTER_BOUND ( 'NONE', #106, .T. ) ;
#180 =( GEOMETRIC_REPRESENTATION_CONTEXT ( 3 ) GLOBAL_UNCERTAINTY_ASSIGNED_CONTEXT ( ( #190 ) ) GLOBAL_UNIT_ASSIGNED_CONTEXT ( ( #140, #153, #61 ) ) REPRESENTATION_CONTEXT ( 'NONE', 'WORKASPACE' ) );
#181 = FACE_OUTER_BOUND ( 'NONE', #185, .T. ) ;
#182 = ORIENTED_EDGE ( 'NONE', *, *, #70, .T. ) ;
#183 = SURFACE_STYLE_USAGE ( .BOTH. , #16 ) ;
#184 = LINE ( 'NONE', #121, #191 ) ;
#185 = EDGE_LOOP ( 'NONE', ( #64, #79, #145, #35 ) ) ;
#186 =( GEOMETRIC_REPRESENTATION_CONTEXT ( 3 ) GLOBAL_UNCERTAINTY_ASSIGNED_CONTEXT ( ( #115 ) ) GLOBAL_UNIT_ASSIGNED_CONTEXT ( ( #4, #85, #150 ) ) REPRESENTATION_CONTEXT ( 'NONE', 'WORKASPACE' ) );
#187 = VECTOR ( 'NONE', #46, 1000.000000000000000 ) ;
#188 = EDGE_CURVE ( 'NONE', #91, #89, #86, .T. ) ;
#189 = DIRECTION ( 'NONE',  ( 1.000000000000000000, 0.000000000000000000, 0.000000000000000000 ) ) ;
#190 = UNCERTAINTY_MEASURE_WITH_UNIT (LENGTH_MEASURE( 1.000000000000000082E-05 ), #140, 'distance_accuracy_value', 'NONE');
#191 = VECTOR ( 'NONE', #81, 1000.000000000000000 ) ;
#192 = FACE_OUTER_BOUND ( 'NONE', #17, .T. ) ;
#193 = VECTOR ( 'NONE', #189, 1000.000000000000000 ) ;
#194 = EDGE_CURVE ( 'NONE', #89, #93, #2, .T. ) ;
#195 = EDGE_LOOP ( 'NONE', ( #122, #108, #32, #30 ) ) ;
#196 = ORIENTED_EDGE ( 'NONE', *, *, #95, .T. ) ;
#197 = CARTESIAN_POINT ( 'NONE',  ( 2.999999999999998224, 0.000000000000000000, -15.00000000000000000 ) ) ;
#198 = EDGE_LOOP ( 'NONE', ( #159, #196, #73, #182 ) ) ;
#199 = ORIENTED_EDGE ( 'NONE', *, *, #84, .F. ) ;
#200 = CARTESIAN_POINT ( 'NONE',  ( 0.000000000000000000, 0.1499999999999999944, 0.000000000000000000 ) ) ;
#201 = DIRECTION ( 'NONE',  ( -1.156482317317871478E-16, -0.000000000000000000, -1.000000000000000000 ) ) ;
#202 = PRESENTATION_LAYER_ASSIGNMENT (  '', '', ( #178 ) ) ;
ENDSEC;
END-ISO-10303-21;
