ISO-10303-21;
HEADER;
FILE_DESCRIPTION (( 'STEP AP214' ),
    '1' );
FILE_NAME ('B6090A_mid.STEP',
    '2021-04-15T16:03:01',
    ( '' ),
    ( '' ),
    'SwSTEP 2.0',
    'SolidWorks 2020',
    '' );
FILE_SCHEMA (( 'AUTOMOTIVE_DESIGN' ));
ENDSEC;

DATA;
#1 = ORIENTED_EDGE ( 'NONE', *, *, #55, .F. ) ;
#2 = CARTESIAN_POINT ( 'NONE',  ( 898.0000000000000000, 55.00000000000000000, -1.999999999999724221 ) ) ;
#3 = ORIENTED_EDGE ( 'NONE', *, *, #329, .T. ) ;
#4 = VECTOR ( 'NONE', #307, 1000.000000000000000 ) ;
#5 = COLOUR_RGB ( '',0.7921568627450980005, 0.8196078431372548767, 0.9333333333333333481 ) ;
#6 = ORIENTED_EDGE ( 'NONE', *, *, #84, .F. ) ;
#7 = LINE ( 'NONE', #8, #41 ) ;
#8 = CARTESIAN_POINT ( 'NONE',  ( 2.000000000000003553, 55.00000000000000000, -1.999999999999724221 ) ) ;
#9 = CIRCLE ( 'NONE', #191, 10.50000000000000000 ) ;
#10 = DIRECTION ( 'NONE',  ( -0.000000000000000000, 1.000000000000000000, 0.000000000000000000 ) ) ;
#11 = ADVANCED_FACE ( 'NONE', ( #247 ), #319, .T. ) ;
#12 = FACE_OUTER_BOUND ( 'NONE', #324, .T. ) ;
#13 = CARTESIAN_POINT ( 'NONE',  ( 12.50000000000000355, 55.00000000000000000, -1.999999999999724221 ) ) ;
#14 = LINE ( 'NONE', #72, #4 ) ;
#15 = ORIENTED_EDGE ( 'NONE', *, *, #303, .F. ) ;
#16 = DIRECTION ( 'NONE',  ( 2.910609859021489220E-18, -0.000000000000000000, 1.000000000000000000 ) ) ;
#17 = DIRECTION ( 'NONE',  ( 0.000000000000000000, 0.000000000000000000, -1.000000000000000000 ) ) ;
#18 = ORIENTED_EDGE ( 'NONE', *, *, #306, .T. ) ;
#19 = LINE ( 'NONE', #250, #31 ) ;
#20 = PRODUCT ( 'B6090A_mid', 'B6090A_mid', '', ( #109 ) ) ;
#21 = ORIENTED_EDGE ( 'NONE', *, *, #136, .F. ) ;
#22 = VERTEX_POINT ( 'NONE', #243 ) ;
#23 = CARTESIAN_POINT ( 'NONE',  ( 887.5000000000001137, 55.00000000000000000, -587.4999999999995453 ) ) ;
#24 = ADVANCED_FACE ( 'NONE', ( #185 ), #27, .F. ) ;
#25 = VECTOR ( 'NONE', #285, 1000.000000000000000 ) ;
#26 = ORIENTED_EDGE ( 'NONE', *, *, #44, .T. ) ;
#27 = PLANE ( 'NONE',  #50 ) ;
#28 =( NAMED_UNIT ( * ) PLANE_ANGLE_UNIT ( ) SI_UNIT ( $, .RADIAN. ) );
#29 = CARTESIAN_POINT ( 'NONE',  ( 2.000000000000001776, 5.000000000000000000, -587.4999999999996589 ) ) ;
#30 = CIRCLE ( 'NONE', #266, 10.50000000000000000 ) ;
#31 = VECTOR ( 'NONE', #80, 1000.000000000000000 ) ;
#32 = CARTESIAN_POINT ( 'NONE',  ( 12.50000000000000355, 55.00000000000000000, -12.49999999999972466 ) ) ;
#33 = MECHANICAL_DESIGN_GEOMETRIC_PRESENTATION_REPRESENTATION (  '', ( #118 ), #326 ) ;
#34 = UNCERTAINTY_MEASURE_WITH_UNIT (LENGTH_MEASURE( 1.000000000000000082E-05 ), #66, 'distance_accuracy_value', 'NONE');
#35 = LINE ( 'NONE', #144, #141 ) ;
#36 = CARTESIAN_POINT ( 'NONE',  ( 898.0000000000000000, 5.000000000000000000, -587.4999999999996589 ) ) ;
#37 = UNCERTAINTY_MEASURE_WITH_UNIT (LENGTH_MEASURE( 1.000000000000000082E-05 ), #325, 'distance_accuracy_value', 'NONE');
#38 = PLANE ( 'NONE',  #293 ) ;
#39 = EDGE_CURVE ( 'NONE', #120, #209, #241, .T. ) ;
#40 = EDGE_CURVE ( 'NONE', #338, #208, #132, .T. ) ;
#41 = VECTOR ( 'NONE', #221, 1000.000000000000000 ) ;
#42 = DIRECTION ( 'NONE',  ( 0.000000000000000000, 0.000000000000000000, -1.000000000000000000 ) ) ;
#43 = CARTESIAN_POINT ( 'NONE',  ( 12.50000000000000355, 55.00000000000000000, -597.9999999999996589 ) ) ;
#44 = EDGE_CURVE ( 'NONE', #209, #67, #146, .T. ) ;
#45 = DIRECTION ( 'NONE',  ( -0.000000000000000000, 1.000000000000000000, -0.000000000000000000 ) ) ;
#46 = VERTEX_POINT ( 'NONE', #29 ) ;
#47 = FILL_AREA_STYLE ('',( #178 ) ) ;
#48 = FACE_OUTER_BOUND ( 'NONE', #94, .T. ) ;
#49 = DIRECTION ( 'NONE',  ( 0.000000000000000000, 0.000000000000000000, -1.000000000000000000 ) ) ;
#50 = AXIS2_PLACEMENT_3D ( 'NONE', #2, #218, #268 ) ;
#51 = DIRECTION ( 'NONE',  ( -1.000000000000000000, 0.000000000000000000, -0.000000000000000000 ) ) ;
#52 = ORIENTED_EDGE ( 'NONE', *, *, #278, .F. ) ;
#53 = DIRECTION ( 'NONE',  ( 0.000000000000000000, -1.000000000000000000, 0.000000000000000000 ) ) ;
#54 = CARTESIAN_POINT ( 'NONE',  ( 12.50000000000000355, 55.00000000000000000, -12.49999999999972466 ) ) ;
#55 = EDGE_CURVE ( 'NONE', #208, #128, #9, .T. ) ;
#56 = ORIENTED_EDGE ( 'NONE', *, *, #149, .F. ) ;
#57 = CARTESIAN_POINT ( 'NONE',  ( 887.5000000000001137, 55.00000000000000000, -12.49999999999972466 ) ) ;
#58 = COLOUR_RGB ( '',0.7921568627450980005, 0.8196078431372548767, 0.9333333333333333481 ) ;
#59 = ORIENTED_EDGE ( 'NONE', *, *, #278, .T. ) ;
#60 = ORIENTED_EDGE ( 'NONE', *, *, #275, .T. ) ;
#61 = LINE ( 'NONE', #328, #77 ) ;
#62 = DIRECTION ( 'NONE',  ( 0.000000000000000000, -1.000000000000000000, 0.000000000000000000 ) ) ;
#63 = CARTESIAN_POINT ( 'NONE',  ( 12.50000000000000178, 55.00000000000000000, -587.4999999999996589 ) ) ;
#64 = DIRECTION ( 'NONE',  ( 0.000000000000000000, -1.000000000000000000, 0.000000000000000000 ) ) ;
#65 = CARTESIAN_POINT ( 'NONE',  ( 2.000000000000003553, 55.00000000000000000, -1.999999999999724221 ) ) ;
#66 =( LENGTH_UNIT ( ) NAMED_UNIT ( * ) SI_UNIT ( .MILLI., .METRE. ) );
#67 = VERTEX_POINT ( 'NONE', #219 ) ;
#68 = DIRECTION ( 'NONE',  ( 1.000000000000000000, 0.000000000000000000, 0.000000000000000000 ) ) ;
#69 = CIRCLE ( 'NONE', #330, 10.49999999999995381 ) ;
#70 = AXIS2_PLACEMENT_3D ( 'NONE', #32, #53, #139 ) ;
#71 = PLANE ( 'NONE',  #246 ) ;
#72 = CARTESIAN_POINT ( 'NONE',  ( 898.0000000000000000, 5.000000000000000000, -1.999999999999724221 ) ) ;
#73 = ORIENTED_EDGE ( 'NONE', *, *, #170, .T. ) ;
#74 = EDGE_CURVE ( 'NONE', #95, #338, #30, .T. ) ;
#75 = EDGE_LOOP ( 'NONE', ( #203, #153, #179, #296 ) ) ;
#76 = DIRECTION ( 'NONE',  ( 0.000000000000000000, 0.000000000000000000, -1.000000000000000000 ) ) ;
#77 = VECTOR ( 'NONE', #110, 1000.000000000000000 ) ;
#78 = ORIENTED_EDGE ( 'NONE', *, *, #170, .F. ) ;
#79 = DIRECTION ( 'NONE',  ( -0.000000000000000000, 1.000000000000000000, 0.000000000000000000 ) ) ;
#80 = DIRECTION ( 'NONE',  ( -0.000000000000000000, 1.000000000000000000, -0.000000000000000000 ) ) ;
#81 = ORIENTED_EDGE ( 'NONE', *, *, #84, .T. ) ;
#82 = CARTESIAN_POINT ( 'NONE',  ( 887.5000000000001137, 4.999999999999997335, -12.49999999999972466 ) ) ;
#83 = AXIS2_PLACEMENT_3D ( 'NONE', #140, #224, #137 ) ;
#84 = EDGE_CURVE ( 'NONE', #100, #269, #254, .T. ) ;
#85 = FACE_OUTER_BOUND ( 'NONE', #291, .T. ) ;
#86 = PLANE ( 'NONE',  #210 ) ;
#87 = PLANE ( 'NONE',  #298 ) ;
#88 = PRODUCT_DEFINITION ( 'UNKNOWN', '', #177, #133 ) ;
#89 = STYLED_ITEM ( 'NONE', ( #334 ), #196 ) ;
#90 = ADVANCED_FACE ( 'NONE', ( #85 ), #304, .T. ) ;
#91 = SURFACE_STYLE_FILL_AREA ( #47 ) ;
#92 = ORIENTED_EDGE ( 'NONE', *, *, #149, .T. ) ;
#93 = CARTESIAN_POINT ( 'NONE',  ( 2.000000000000003553, 5.000000000000000000, -1.999999999999724221 ) ) ;
#94 = EDGE_LOOP ( 'NONE', ( #156, #59, #265, #187 ) ) ;
#95 = VERTEX_POINT ( 'NONE', #227 ) ;
#96 = ORIENTED_EDGE ( 'NONE', *, *, #306, .F. ) ;
#97 =( LENGTH_UNIT ( ) NAMED_UNIT ( * ) SI_UNIT ( .MILLI., .METRE. ) );
#98 =( NAMED_UNIT ( * ) SI_UNIT ( $, .STERADIAN. ) SOLID_ANGLE_UNIT ( ) );
#99 = ORIENTED_EDGE ( 'NONE', *, *, #217, .T. ) ;
#100 = VERTEX_POINT ( 'NONE', #226 ) ;
#101 = ORIENTED_EDGE ( 'NONE', *, *, #161, .T. ) ;
#102 = CARTESIAN_POINT ( 'NONE',  ( 887.5000000000001137, 55.00000000000000000, -587.4999999999995453 ) ) ;
#103 = PRESENTATION_LAYER_ASSIGNMENT (  '', '', ( #89 ) ) ;
#104 = PRESENTATION_LAYER_ASSIGNMENT (  '', '', ( #118 ) ) ;
#105 = DIRECTION ( 'NONE',  ( 0.000000000000000000, 0.000000000000000000, -1.000000000000000000 ) ) ;
#106 = FACE_OUTER_BOUND ( 'NONE', #308, .T. ) ;
#107 = DIRECTION ( 'NONE',  ( -0.000000000000000000, 1.000000000000000000, 0.000000000000000000 ) ) ;
#108 = ADVANCED_FACE ( 'NONE', ( #169 ), #297, .T. ) ;
#109 = PRODUCT_CONTEXT ( 'NONE', #116, 'mechanical' ) ;
#110 = DIRECTION ( 'NONE',  ( 0.000000000000000000, 0.000000000000000000, -1.000000000000000000 ) ) ;
#111 = AXIS2_PLACEMENT_3D ( 'NONE', #23, #79, #271 ) ;
#112 = AXIS2_PLACEMENT_3D ( 'NONE', #302, #10, #42 ) ;
#113 = DIRECTION ( 'NONE',  ( 0.000000000000000000, -1.000000000000000000, 0.000000000000000000 ) ) ;
#114 = EDGE_CURVE ( 'NONE', #338, #22, #167, .T. ) ;
#115 = DIRECTION ( 'NONE',  ( 0.000000000000000000, 0.000000000000000000, -1.000000000000000000 ) ) ;
#116 = APPLICATION_CONTEXT ( 'automotive_design' ) ;
#117 = FACE_OUTER_BOUND ( 'NONE', #162, .T. ) ;
#118 = STYLED_ITEM ( 'NONE', ( #295 ), #215 ) ;
#119 = CARTESIAN_POINT ( 'NONE',  ( 887.5000000000001137, 55.00000000000000000, -597.9999999999995453 ) ) ;
#120 = VERTEX_POINT ( 'NONE', #36 ) ;
#121 = CARTESIAN_POINT ( 'NONE',  ( 887.5000000000001137, 5.000000000000000000, -1.999999999999724221 ) ) ;
#122 = CARTESIAN_POINT ( 'NONE',  ( 2.000000000000003553, 5.000000000000000000, -1.999999999999724221 ) ) ;
#123 = LINE ( 'NONE', #236, #176 ) ;
#124 = ORIENTED_EDGE ( 'NONE', *, *, #74, .T. ) ;
#125 = ADVANCED_FACE ( 'NONE', ( #166 ), #86, .F. ) ;
#126 = CARTESIAN_POINT ( 'NONE',  ( 887.5000000000001137, 4.999999999999997335, -587.4999999999995453 ) ) ;
#127 = ORIENTED_EDGE ( 'NONE', *, *, #44, .F. ) ;
#128 = VERTEX_POINT ( 'NONE', #251 ) ;
#129 = CARTESIAN_POINT ( 'NONE',  ( 898.0000000000000000, 55.00000000000000000, -587.4999999999996589 ) ) ;
#130 = ORIENTED_EDGE ( 'NONE', *, *, #40, .T. ) ;
#131 = ADVANCED_FACE ( 'NONE', ( #117 ), #38, .T. ) ;
#132 = LINE ( 'NONE', #341, #335 ) ;
#133 = PRODUCT_DEFINITION_CONTEXT ( 'detailed design', #189, 'design' ) ;
#134 = DIRECTION ( 'NONE',  ( -0.000000000000000000, 1.000000000000000000, 0.000000000000000000 ) ) ;
#135 = DIRECTION ( 'NONE',  ( 0.000000000000000000, 0.000000000000000000, 1.000000000000000000 ) ) ;
#136 = EDGE_CURVE ( 'NONE', #211, #263, #35, .T. ) ;
#137 = DIRECTION ( 'NONE',  ( 0.000000000000000000, 0.000000000000000000, -1.000000000000000000 ) ) ;
#138 = DIRECTION ( 'NONE',  ( 1.000000000000000000, 0.000000000000000000, 1.239088197126290817E-16 ) ) ;
#139 = DIRECTION ( 'NONE',  ( 0.000000000000000000, 0.000000000000000000, -1.000000000000000000 ) ) ;
#140 = CARTESIAN_POINT ( 'NONE',  ( 12.50000000000000355, 4.999999999999997335, -12.49999999999972466 ) ) ;
#141 = VECTOR ( 'NONE', #249, 1000.000000000000000 ) ;
#142 = CARTESIAN_POINT ( 'NONE',  ( 0.000000000000000000, 5.000000000000000000, 0.000000000000000000 ) ) ;
#143 = EDGE_CURVE ( 'NONE', #216, #95, #7, .T. ) ;
#144 = CARTESIAN_POINT ( 'NONE',  ( 2.000000000000001776, 5.000000000000000000, -597.9999999999996589 ) ) ;
#145 = ORIENTED_EDGE ( 'NONE', *, *, #39, .F. ) ;
#146 = CIRCLE ( 'NONE', #111, 10.49999999999995381 ) ;
#147 =( GEOMETRIC_REPRESENTATION_CONTEXT ( 3 ) GLOBAL_UNCERTAINTY_ASSIGNED_CONTEXT ( ( #34 ) ) GLOBAL_UNIT_ASSIGNED_CONTEXT ( ( #66, #180, #199 ) ) REPRESENTATION_CONTEXT ( 'NONE', 'WORKASPACE' ) );
#148 = LINE ( 'NONE', #262, #186 ) ;
#149 = EDGE_CURVE ( 'NONE', #128, #209, #61, .T. ) ;
#150 = EDGE_CURVE ( 'NONE', #22, #320, #225, .T. ) ;
#151 = PLANE ( 'NONE',  #312 ) ;
#152 = PRODUCT_DEFINITION_SHAPE ( 'NONE', 'NONE',  #88 ) ;
#153 = ORIENTED_EDGE ( 'NONE', *, *, #303, .T. ) ;
#154 = EDGE_CURVE ( 'NONE', #128, #100, #255, .T. ) ;
#155 = SURFACE_SIDE_STYLE ('',( #91 ) ) ;
#156 = ORIENTED_EDGE ( 'NONE', *, *, #310, .T. ) ;
#157 = CYLINDRICAL_SURFACE ( 'NONE', #70, 10.50000000000000000 ) ;
#158 = ORIENTED_EDGE ( 'NONE', *, *, #252, .F. ) ;
#159 = DIRECTION ( 'NONE',  ( -0.000000000000000000, 1.000000000000000000, -0.000000000000000000 ) ) ;
#160 = ORIENTED_EDGE ( 'NONE', *, *, #217, .F. ) ;
#161 = EDGE_CURVE ( 'NONE', #67, #175, #327, .T. ) ;
#162 = EDGE_LOOP ( 'NONE', ( #21, #18, #206, #81, #201, #244, #158, #60 ) ) ;
#163 = DIRECTION ( 'NONE',  ( 0.000000000000000000, -1.000000000000000000, 0.000000000000000000 ) ) ;
#164 = CARTESIAN_POINT ( 'NONE',  ( 12.50000000000000355, 55.00000000000000000, -1.999999999999724221 ) ) ;
#165 = CLOSED_SHELL ( 'NONE', ( #174, #321, #24, #125, #257, #131, #11, #108, #339, #90 ) ) ;
#166 = FACE_OUTER_BOUND ( 'NONE', #75, .T. ) ;
#167 = LINE ( 'NONE', #13, #223 ) ;
#168 = DIRECTION ( 'NONE',  ( -1.239088197126290817E-16, 0.000000000000000000, 1.000000000000000000 ) ) ;
#169 = FACE_OUTER_BOUND ( 'NONE', #231, .T. ) ;
#170 = EDGE_CURVE ( 'NONE', #175, #216, #198, .T. ) ;
#171 = VECTOR ( 'NONE', #194, 1000.000000000000000 ) ;
#172 = DIRECTION ( 'NONE',  ( 1.000000000000000000, 0.000000000000000000, -2.910609859021489605E-18 ) ) ;
#173 = DIRECTION ( 'NONE',  ( 0.000000000000000000, -1.000000000000000000, 0.000000000000000000 ) ) ;
#174 = ADVANCED_FACE ( 'NONE', ( #12 ), #87, .F. ) ;
#175 = VERTEX_POINT ( 'NONE', #43 ) ;
#176 = VECTOR ( 'NONE', #336, 1000.000000000000000 ) ;
#177 = PRODUCT_DEFINITION_FORMATION_WITH_SPECIFIED_SOURCE ( 'ANY', '', #20, .NOT_KNOWN. ) ;
#178 = FILL_AREA_STYLE_COLOUR ( '', #58 ) ;
#179 = ORIENTED_EDGE ( 'NONE', *, *, #136, .T. ) ;
#180 =( NAMED_UNIT ( * ) PLANE_ANGLE_UNIT ( ) SI_UNIT ( $, .RADIAN. ) );
#181 = CARTESIAN_POINT ( 'NONE',  ( 2.000000000000003553, 55.00000000000000000, -1.999999999999724221 ) ) ;
#182 = VECTOR ( 'NONE', #68, 1000.000000000000000 ) ;
#183 =( GEOMETRIC_REPRESENTATION_CONTEXT ( 3 ) GLOBAL_UNCERTAINTY_ASSIGNED_CONTEXT ( ( #37 ) ) GLOBAL_UNIT_ASSIGNED_CONTEXT ( ( #325, #193, #270 ) ) REPRESENTATION_CONTEXT ( 'NONE', 'WORKASPACE' ) );
#184 = ORIENTED_EDGE ( 'NONE', *, *, #74, .F. ) ;
#185 = FACE_OUTER_BOUND ( 'NONE', #214, .T. ) ;
#186 = VECTOR ( 'NONE', #45, 1000.000000000000000 ) ;
#187 = ORIENTED_EDGE ( 'NONE', *, *, #114, .T. ) ;
#188 = ORIENTED_EDGE ( 'NONE', *, *, #114, .F. ) ;
#189 = APPLICATION_CONTEXT ( 'automotive_design' ) ;
#190 = SHAPE_DEFINITION_REPRESENTATION ( #152, #215 ) ;
#191 = AXIS2_PLACEMENT_3D ( 'NONE', #57, #134, #105 ) ;
#192 = DIRECTION ( 'NONE',  ( 0.000000000000000000, -1.000000000000000000, -0.000000000000000000 ) ) ;
#193 =( NAMED_UNIT ( * ) PLANE_ANGLE_UNIT ( ) SI_UNIT ( $, .RADIAN. ) );
#194 = DIRECTION ( 'NONE',  ( -1.000000000000000000, -0.000000000000000000, -1.239088197126290817E-16 ) ) ;
#195 = CARTESIAN_POINT ( 'NONE',  ( 898.0000000000000000, 55.00000000000000000, -12.49999999999972466 ) ) ;
#196 = MANIFOLD_SOLID_BREP ( 'Fillet2', #165 ) ;
#197 = CARTESIAN_POINT ( 'NONE',  ( 2.000000000000001776, 55.00000000000000000, -597.9999999999996589 ) ) ;
#198 = CIRCLE ( 'NONE', #112, 10.49999999999995381 ) ;
#199 =( NAMED_UNIT ( * ) SI_UNIT ( $, .STERADIAN. ) SOLID_ANGLE_UNIT ( ) );
#200 = CARTESIAN_POINT ( 'NONE',  ( 898.0000000000000000, 55.00000000000000000, -587.4999999999996589 ) ) ;
#201 = ORIENTED_EDGE ( 'NONE', *, *, #310, .F. ) ;
#202 = SURFACE_STYLE_USAGE ( .BOTH. , #155 ) ;
#203 = ORIENTED_EDGE ( 'NONE', *, *, #161, .F. ) ;
#204 = MECHANICAL_DESIGN_GEOMETRIC_PRESENTATION_REPRESENTATION (  '', ( #89 ), #147 ) ;
#205 = CARTESIAN_POINT ( 'NONE',  ( 2.000000000000001776, 55.00000000000000000, -587.4999999999996589 ) ) ;
#206 = ORIENTED_EDGE ( 'NONE', *, *, #212, .F. ) ;
#207 = DIRECTION ( 'NONE',  ( 0.000000000000000000, -1.000000000000000000, -0.000000000000000000 ) ) ;
#208 = VERTEX_POINT ( 'NONE', #228 ) ;
#209 = VERTEX_POINT ( 'NONE', #200 ) ;
#210 = AXIS2_PLACEMENT_3D ( 'NONE', #273, #168, #138 ) ;
#211 = VERTEX_POINT ( 'NONE', #281 ) ;
#212 = EDGE_CURVE ( 'NONE', #100, #120, #14, .T. ) ;
#213 = EDGE_CURVE ( 'NONE', #263, #175, #148, .T. ) ;
#214 = EDGE_LOOP ( 'NONE', ( #294, #318, #56, #283 ) ) ;
#215 = ADVANCED_BREP_SHAPE_REPRESENTATION ( 'B6090A_mid', ( #196, #305 ), #183 ) ;
#216 = VERTEX_POINT ( 'NONE', #238 ) ;
#217 = EDGE_CURVE ( 'NONE', #216, #46, #313, .T. ) ;
#218 = DIRECTION ( 'NONE',  ( -1.000000000000000000, 0.000000000000000000, 0.000000000000000000 ) ) ;
#219 = CARTESIAN_POINT ( 'NONE',  ( 887.5000000000001137, 55.00000000000000000, -597.9999999999995453 ) ) ;
#220 = APPLICATION_PROTOCOL_DEFINITION ( 'draft international standard', 'automotive_design', 1998, #116 ) ;
#221 = DIRECTION ( 'NONE',  ( 2.910609859021489220E-18, -0.000000000000000000, 1.000000000000000000 ) ) ;
#222 = APPLICATION_PROTOCOL_DEFINITION ( 'draft international standard', 'automotive_design', 1998, #189 ) ;
#223 = VECTOR ( 'NONE', #274, 1000.000000000000000 ) ;
#224 = DIRECTION ( 'NONE',  ( 0.000000000000000000, -1.000000000000000000, -0.000000000000000000 ) ) ;
#225 = CIRCLE ( 'NONE', #83, 10.50000000000000000 ) ;
#226 = CARTESIAN_POINT ( 'NONE',  ( 898.0000000000000000, 5.000000000000000000, -12.49999999999972466 ) ) ;
#227 = CARTESIAN_POINT ( 'NONE',  ( 2.000000000000003553, 55.00000000000000000, -12.49999999999972466 ) ) ;
#228 = CARTESIAN_POINT ( 'NONE',  ( 887.5000000000001137, 55.00000000000000000, -1.999999999999724221 ) ) ;
#229 = AXIS2_PLACEMENT_3D ( 'NONE', #82, #192, #299 ) ;
#230 = DIRECTION ( 'NONE',  ( 0.000000000000000000, -1.000000000000000000, -0.000000000000000000 ) ) ;
#231 = EDGE_LOOP ( 'NONE', ( #1, #52, #6, #288 ) ) ;
#232 = CARTESIAN_POINT ( 'NONE',  ( 12.50000000000000178, 4.999999999999997335, -587.4999999999996589 ) ) ;
#233 = FACE_OUTER_BOUND ( 'NONE', #290, .T. ) ;
#234 = AXIS2_PLACEMENT_3D ( 'NONE', #63, #62, #276 ) ;
#235 = VECTOR ( 'NONE', #113, 1000.000000000000000 ) ;
#236 = CARTESIAN_POINT ( 'NONE',  ( 887.5000000000001137, 55.00000000000000000, -1.999999999999724221 ) ) ;
#237 = ORIENTED_EDGE ( 'NONE', *, *, #55, .T. ) ;
#238 = CARTESIAN_POINT ( 'NONE',  ( 2.000000000000001776, 55.00000000000000000, -587.4999999999996589 ) ) ;
#239 = EDGE_LOOP ( 'NONE', ( #127, #145, #96, #15 ) ) ;
#240 = FILL_AREA_STYLE_COLOUR ( '', #5 ) ;
#241 = LINE ( 'NONE', #129, #245 ) ;
#242 = ORIENTED_EDGE ( 'NONE', *, *, #252, .T. ) ;
#243 = CARTESIAN_POINT ( 'NONE',  ( 12.50000000000000355, 5.000000000000000000, -1.999999999999724221 ) ) ;
#244 = ORIENTED_EDGE ( 'NONE', *, *, #150, .T. ) ;
#245 = VECTOR ( 'NONE', #159, 1000.000000000000000 ) ;
#246 = AXIS2_PLACEMENT_3D ( 'NONE', #259, #286, #49 ) ;
#247 = FACE_OUTER_BOUND ( 'NONE', #239, .T. ) ;
#248 = DIRECTION ( 'NONE',  ( 1.000000000000000000, 0.000000000000000000, 0.000000000000000000 ) ) ;
#249 = DIRECTION ( 'NONE',  ( -1.000000000000000000, -0.000000000000000000, -1.239088197126290817E-16 ) ) ;
#250 = CARTESIAN_POINT ( 'NONE',  ( 2.000000000000003553, 55.00000000000000000, -12.49999999999972466 ) ) ;
#251 = CARTESIAN_POINT ( 'NONE',  ( 898.0000000000000000, 55.00000000000000000, -12.49999999999972466 ) ) ;
#252 = EDGE_CURVE ( 'NONE', #46, #320, #280, .T. ) ;
#253 = UNCERTAINTY_MEASURE_WITH_UNIT (LENGTH_MEASURE( 1.000000000000000082E-05 ), #97, 'distance_accuracy_value', 'NONE');
#254 = CIRCLE ( 'NONE', #229, 10.50000000000000000 ) ;
#255 = LINE ( 'NONE', #195, #235 ) ;
#256 = DIRECTION ( 'NONE',  ( 0.000000000000000000, 0.000000000000000000, -1.000000000000000000 ) ) ;
#257 = ADVANCED_FACE ( 'NONE', ( #233 ), #71, .F. ) ;
#258 = DIRECTION ( 'NONE',  ( 0.000000000000000000, 0.000000000000000000, -1.000000000000000000 ) ) ;
#259 = CARTESIAN_POINT ( 'NONE',  ( 0.000000000000000000, 55.00000000000000000, 0.000000000000000000 ) ) ;
#260 = CARTESIAN_POINT ( 'NONE',  ( 12.50000000000000355, 5.000000000000000000, -597.9999999999996589 ) ) ;
#261 = AXIS2_PLACEMENT_3D ( 'NONE', #102, #163, #76 ) ;
#262 = CARTESIAN_POINT ( 'NONE',  ( 12.50000000000000355, 55.00000000000000000, -597.9999999999996589 ) ) ;
#263 = VERTEX_POINT ( 'NONE', #260 ) ;
#264 = ORIENTED_EDGE ( 'NONE', *, *, #275, .F. ) ;
#265 = ORIENTED_EDGE ( 'NONE', *, *, #40, .F. ) ;
#266 = AXIS2_PLACEMENT_3D ( 'NONE', #54, #107, #115 ) ;
#267 = VECTOR ( 'NONE', #173, 1000.000000000000000 ) ;
#268 = DIRECTION ( 'NONE',  ( 0.000000000000000000, 0.000000000000000000, 1.000000000000000000 ) ) ;
#269 = VERTEX_POINT ( 'NONE', #121 ) ;
#270 =( NAMED_UNIT ( * ) SI_UNIT ( $, .STERADIAN. ) SOLID_ANGLE_UNIT ( ) );
#271 = DIRECTION ( 'NONE',  ( 0.000000000000000000, 0.000000000000000000, -1.000000000000000000 ) ) ;
#272 = CARTESIAN_POINT ( 'NONE',  ( 0.000000000000000000, 0.000000000000000000, 0.000000000000000000 ) ) ;
#273 = CARTESIAN_POINT ( 'NONE',  ( 2.000000000000001776, 55.00000000000000000, -597.9999999999996589 ) ) ;
#274 = DIRECTION ( 'NONE',  ( 0.000000000000000000, -1.000000000000000000, 0.000000000000000000 ) ) ;
#275 = EDGE_CURVE ( 'NONE', #46, #263, #284, .T. ) ;
#276 = DIRECTION ( 'NONE',  ( 0.000000000000000000, 0.000000000000000000, -1.000000000000000000 ) ) ;
#277 = DIRECTION ( 'NONE',  ( 0.000000000000000000, -1.000000000000000000, 0.000000000000000000 ) ) ;
#278 = EDGE_CURVE ( 'NONE', #269, #208, #123, .T. ) ;
#279 = DIRECTION ( 'NONE',  ( -2.910609859021489605E-18, 0.000000000000000000, -1.000000000000000000 ) ) ;
#280 = LINE ( 'NONE', #122, #342 ) ;
#281 = CARTESIAN_POINT ( 'NONE',  ( 887.5000000000001137, 5.000000000000000000, -597.9999999999995453 ) ) ;
#282 = AXIS2_PLACEMENT_3D ( 'NONE', #301, #64, #258 ) ;
#283 = ORIENTED_EDGE ( 'NONE', *, *, #154, .T. ) ;
#284 = CIRCLE ( 'NONE', #289, 10.49999999999995381 ) ;
#285 = DIRECTION ( 'NONE',  ( 0.000000000000000000, -1.000000000000000000, 0.000000000000000000 ) ) ;
#286 = DIRECTION ( 'NONE',  ( 0.000000000000000000, -1.000000000000000000, 0.000000000000000000 ) ) ;
#287 = DIRECTION ( 'NONE',  ( 0.000000000000000000, 0.000000000000000000, -1.000000000000000000 ) ) ;
#288 = ORIENTED_EDGE ( 'NONE', *, *, #154, .F. ) ;
#289 = AXIS2_PLACEMENT_3D ( 'NONE', #232, #230, #17 ) ;
#290 = EDGE_LOOP ( 'NONE', ( #92, #26, #101, #73, #322, #124, #130, #237 ) ) ;
#291 = EDGE_LOOP ( 'NONE', ( #78, #311, #264, #160 ) ) ;
#292 = ORIENTED_EDGE ( 'NONE', *, *, #150, .F. ) ;
#293 = AXIS2_PLACEMENT_3D ( 'NONE', #142, #277, #256 ) ;
#294 = ORIENTED_EDGE ( 'NONE', *, *, #212, .T. ) ;
#295 = PRESENTATION_STYLE_ASSIGNMENT (( #317 ) ) ;
#296 = ORIENTED_EDGE ( 'NONE', *, *, #213, .T. ) ;
#297 = CYLINDRICAL_SURFACE ( 'NONE', #282, 10.50000000000000000 ) ;
#298 = AXIS2_PLACEMENT_3D ( 'NONE', #65, #172, #279 ) ;
#299 = DIRECTION ( 'NONE',  ( 0.000000000000000000, 0.000000000000000000, -1.000000000000000000 ) ) ;
#300 = FILL_AREA_STYLE ('',( #240 ) ) ;
#301 = CARTESIAN_POINT ( 'NONE',  ( 887.5000000000001137, 55.00000000000000000, -12.49999999999972466 ) ) ;
#302 = CARTESIAN_POINT ( 'NONE',  ( 12.50000000000000178, 55.00000000000000000, -587.4999999999996589 ) ) ;
#303 = EDGE_CURVE ( 'NONE', #67, #211, #309, .T. ) ;
#304 = CYLINDRICAL_SURFACE ( 'NONE', #234, 10.49999999999995381 ) ;
#305 = AXIS2_PLACEMENT_3D ( 'NONE', #272, #135, #248 ) ;
#306 = EDGE_CURVE ( 'NONE', #211, #120, #69, .T. ) ;
#307 = DIRECTION ( 'NONE',  ( 0.000000000000000000, 0.000000000000000000, -1.000000000000000000 ) ) ;
#308 = EDGE_LOOP ( 'NONE', ( #184, #314, #292, #188 ) ) ;
#309 = LINE ( 'NONE', #119, #25 ) ;
#310 = EDGE_CURVE ( 'NONE', #22, #269, #333, .T. ) ;
#311 = ORIENTED_EDGE ( 'NONE', *, *, #213, .F. ) ;
#312 = AXIS2_PLACEMENT_3D ( 'NONE', #181, #287, #51 ) ;
#313 = LINE ( 'NONE', #205, #267 ) ;
#314 = ORIENTED_EDGE ( 'NONE', *, *, #329, .F. ) ;
#315 = CARTESIAN_POINT ( 'NONE',  ( 2.000000000000003553, 5.000000000000000000, -12.49999999999972466 ) ) ;
#316 = ORIENTED_EDGE ( 'NONE', *, *, #143, .F. ) ;
#317 = SURFACE_STYLE_USAGE ( .BOTH. , #340 ) ;
#318 = ORIENTED_EDGE ( 'NONE', *, *, #39, .T. ) ;
#319 = CYLINDRICAL_SURFACE ( 'NONE', #261, 10.49999999999995381 ) ;
#320 = VERTEX_POINT ( 'NONE', #315 ) ;
#321 = ADVANCED_FACE ( 'NONE', ( #48 ), #151, .F. ) ;
#322 = ORIENTED_EDGE ( 'NONE', *, *, #143, .T. ) ;
#323 = DIRECTION ( 'NONE',  ( 1.000000000000000000, 0.000000000000000000, 0.000000000000000000 ) ) ;
#324 = EDGE_LOOP ( 'NONE', ( #242, #3, #316, #99 ) ) ;
#325 =( LENGTH_UNIT ( ) NAMED_UNIT ( * ) SI_UNIT ( .MILLI., .METRE. ) );
#326 =( GEOMETRIC_REPRESENTATION_CONTEXT ( 3 ) GLOBAL_UNCERTAINTY_ASSIGNED_CONTEXT ( ( #253 ) ) GLOBAL_UNIT_ASSIGNED_CONTEXT ( ( #97, #28, #98 ) ) REPRESENTATION_CONTEXT ( 'NONE', 'WORKASPACE' ) );
#327 = LINE ( 'NONE', #197, #171 ) ;
#328 = CARTESIAN_POINT ( 'NONE',  ( 898.0000000000000000, 55.00000000000000000, -1.999999999999724221 ) ) ;
#329 = EDGE_CURVE ( 'NONE', #320, #95, #19, .T. ) ;
#330 = AXIS2_PLACEMENT_3D ( 'NONE', #126, #207, #331 ) ;
#331 = DIRECTION ( 'NONE',  ( 0.000000000000000000, 0.000000000000000000, -1.000000000000000000 ) ) ;
#332 = PRODUCT_RELATED_PRODUCT_CATEGORY ( 'part', '', ( #20 ) ) ;
#333 = LINE ( 'NONE', #93, #182 ) ;
#334 = PRESENTATION_STYLE_ASSIGNMENT (( #202 ) ) ;
#335 = VECTOR ( 'NONE', #323, 1000.000000000000000 ) ;
#336 = DIRECTION ( 'NONE',  ( -0.000000000000000000, 1.000000000000000000, -0.000000000000000000 ) ) ;
#337 = SURFACE_STYLE_FILL_AREA ( #300 ) ;
#338 = VERTEX_POINT ( 'NONE', #164 ) ;
#339 = ADVANCED_FACE ( 'NONE', ( #106 ), #157, .T. ) ;
#340 = SURFACE_SIDE_STYLE ('',( #337 ) ) ;
#341 = CARTESIAN_POINT ( 'NONE',  ( 2.000000000000003553, 55.00000000000000000, -1.999999999999724221 ) ) ;
#342 = VECTOR ( 'NONE', #16, 1000.000000000000000 ) ;
ENDSEC;
END-ISO-10303-21;
