ISO-10303-21;
HEADER;
FILE_DESCRIPTION (( 'STEP AP203' ),
    '1' );
FILE_NAME ('Support_BrasBas_Micro_Un_sldprt.STEP',
    '2018-04-10T07:33:58',
    ( '' ),
    ( '' ),
    'SwSTEP 2.0',
    'SolidWorks 2017',
    '' );
FILE_SCHEMA (( 'CONFIG_CONTROL_DESIGN' ));
ENDSEC;

DATA;
#1 = AXIS2_PLACEMENT_3D ( 'NONE', #172, #126, #206 ) ;
#2 = CIRCLE ( 'NONE', #44, 13.00000000000000000 ) ;
#3 = ORIENTED_EDGE ( 'NONE', *, *, #48, .T. ) ;
#4 = VERTEX_POINT ( 'NONE', #149 ) ;
#5 = APPROVAL_PERSON_ORGANIZATION ( #57, #17, #39 ) ;
#6 = LOCAL_TIME ( 9, 33, 58.00000000000000000, #174 ) ;
#7 = AXIS2_PLACEMENT_3D ( 'NONE', #137, #185, #169 ) ;
#8 = CIRCLE ( 'NONE', #191, 13.00000000000000000 ) ;
#9 = ORIENTED_EDGE ( 'NONE', *, *, #230, .F. ) ;
#10 = SECURITY_CLASSIFICATION ( '', '', #64 ) ;
#11 = DIRECTION ( 'NONE',  ( 0.0000000000000000000, 0.0000000000000000000, 1.000000000000000000 ) ) ;
#12 = CIRCLE ( 'NONE', #216, 10.95445115010332100 ) ;
#13 = PLANE ( 'NONE',  #195 ) ;
#14 = ORIENTED_EDGE ( 'NONE', *, *, #211, .T. ) ;
#15 = PERSON_AND_ORGANIZATION_ROLE ( 'design_owner' ) ;
#16 = APPLICATION_PROTOCOL_DEFINITION ( 'international standard', 'config_control_design', 1994, #66 ) ;
#17 = APPROVAL ( #31, 'UNSPECIFIED' ) ;
#18 = EDGE_CURVE ( 'NONE', #148, #87, #54, .T. ) ;
#19 = FACE_OUTER_BOUND ( 'NONE', #112, .T. ) ;
#20 = CC_DESIGN_PERSON_AND_ORGANIZATION_ASSIGNMENT ( #123, #170, ( #71 ) ) ;
#21 = SHAPE_DEFINITION_REPRESENTATION ( #51, #50 ) ;
#22 = ORIENTED_EDGE ( 'NONE', *, *, #145, .T. ) ;
#23 = PERSON_AND_ORGANIZATION ( #55, #129 ) ;
#24 = CARTESIAN_POINT ( 'NONE',  ( 0.0000000000000000000, 27.00000000000000000, 0.0000000000000000000 ) ) ;
#25 = COORDINATED_UNIVERSAL_TIME_OFFSET ( 1, 0, .AHEAD. ) ;
#26 = CYLINDRICAL_SURFACE ( 'NONE', #205, 11.95445115010332100 ) ;
#27 =( NAMED_UNIT ( * ) PLANE_ANGLE_UNIT ( ) SI_UNIT ( $, .RADIAN. ) );
#28 = LOCAL_TIME ( 9, 33, 58.00000000000000000, #215 ) ;
#29 = CARTESIAN_POINT ( 'NONE',  ( -1.977319875507226100E-015, 20.00000000000000000, 0.0000000000000000000 ) ) ;
#30 = DIRECTION ( 'NONE',  ( -1.000000000000000000, 0.0000000000000000000, 0.0000000000000000000 ) ) ;
#31 = APPROVAL_STATUS ( 'not_yet_approved' ) ;
#32 = FACE_OUTER_BOUND ( 'NONE', #80, .T. ) ;
#33 = ORIENTED_EDGE ( 'NONE', *, *, #115, .F. ) ;
#34 = CC_DESIGN_PERSON_AND_ORGANIZATION_ASSIGNMENT ( #155, #15, ( #95 ) ) ;
#35 = CALENDAR_DATE ( 2018, 10, 4 ) ;
#36 = LOCAL_TIME ( 9, 33, 58.00000000000000000, #176 ) ;
#37 = DIRECTION ( 'NONE',  ( 9.886599377536129800E-017, -1.000000000000000000, 0.0000000000000000000 ) ) ;
#38 = AXIS2_PLACEMENT_3D ( 'NONE', #201, #152, #217 ) ;
#39 = APPROVAL_ROLE ( '' ) ;
#40 = LOCAL_TIME ( 9, 33, 58.00000000000000000, #141 ) ;
#41 = APPROVAL_STATUS ( 'not_yet_approved' ) ;
#42 = MECHANICAL_CONTEXT ( 'NONE', #136, 'mechanical' ) ;
#43 = CARTESIAN_POINT ( 'NONE',  ( -1.384123912855058200E-015, 14.00000000000000000, 0.0000000000000000000 ) ) ;
#44 = AXIS2_PLACEMENT_3D ( 'NONE', #24, #67, #228 ) ;
#45 = ORIENTED_EDGE ( 'NONE', *, *, #115, .T. ) ;
#46 = APPROVAL_DATE_TIME ( #103, #111 ) ;
#47 = EDGE_LOOP ( 'NONE', ( #184, #158, #163 ) ) ;
#48 = EDGE_CURVE ( 'NONE', #229, #193, #151, .T. ) ;
#49 = FACE_OUTER_BOUND ( 'NONE', #114, .T. ) ;
#50 = ADVANCED_BREP_SHAPE_REPRESENTATION ( 'Support_BrasBas_Micro_Un_sldprt', ( #88, #1 ), #72 ) ;
#51 = PRODUCT_DEFINITION_SHAPE ( 'NONE', 'NONE',  #52 ) ;
#52 = PRODUCT_DEFINITION ( 'UNKNOWN', '', #71, #89 ) ;
#53 = DATE_AND_TIME ( #35, #28 ) ;
#54 = LINE ( 'NONE', #200, #70 ) ;
#55 = PERSON ( 'UNSPECIFIED', 'UNSPECIFIED', 'UNSPECIFIED', ('UNSPECIFIED'), ('UNSPECIFIED'), ('UNSPECIFIED') ) ;
#56 = CC_DESIGN_APPROVAL ( #17, ( #10 ) ) ;
#57 = PERSON_AND_ORGANIZATION ( #55, #129 ) ;
#58 = VECTOR ( 'NONE', #76, 1000.000000000000000 ) ;
#59 = DIRECTION ( 'NONE',  ( -9.886599377536129800E-017, 1.000000000000000000, -0.0000000000000000000 ) ) ;
#60 = AXIS2_PLACEMENT_3D ( 'NONE', #117, #11, #30 ) ;
#61 = DIRECTION ( 'NONE',  ( -9.886599377536129800E-017, 1.000000000000000000, -0.0000000000000000000 ) ) ;
#62 = DIRECTION ( 'NONE',  ( -9.886599377536129800E-017, 1.000000000000000000, 0.0000000000000000000 ) ) ;
#63 = ORIENTED_EDGE ( 'NONE', *, *, #91, .T. ) ;
#64 = SECURITY_CLASSIFICATION_LEVEL ( 'unclassified' ) ;
#65 = DIRECTION ( 'NONE',  ( -1.000000000000000000, 0.0000000000000000000, 0.0000000000000000000 ) ) ;
#66 = APPLICATION_CONTEXT ( 'configuration controlled 3d designs of mechanical parts and assemblies' ) ;
#67 = DIRECTION ( 'NONE',  ( 0.0000000000000000000, -0.0000000000000000000, -1.000000000000000000 ) ) ;
#68 = CC_DESIGN_APPROVAL ( #111, ( #52 ) ) ;
#69 = ORIENTED_EDGE ( 'NONE', *, *, #164, .F. ) ;
#70 = VECTOR ( 'NONE', #74, 1000.000000000000000 ) ;
#71 = PRODUCT_DEFINITION_FORMATION_WITH_SPECIFIED_SOURCE ( 'ANY', '', #95, .NOT_KNOWN. ) ;
#72 =( GEOMETRIC_REPRESENTATION_CONTEXT ( 3 ) GLOBAL_UNCERTAINTY_ASSIGNED_CONTEXT ( ( #130 ) ) GLOBAL_UNIT_ASSIGNED_CONTEXT ( ( #82, #27, #153 ) ) REPRESENTATION_CONTEXT ( 'NONE', 'WORKASPACE' ) );
#73 = ORIENTED_EDGE ( 'NONE', *, *, #85, .T. ) ;
#74 = DIRECTION ( 'NONE',  ( -9.886599377536129800E-017, 1.000000000000000000, -0.0000000000000000000 ) ) ;
#75 = CALENDAR_DATE ( 2018, 10, 4 ) ;
#76 = DIRECTION ( 'NONE',  ( -9.886599377536129800E-017, 1.000000000000000000, -0.0000000000000000000 ) ) ;
#77 = CARTESIAN_POINT ( 'NONE',  ( -11.95445115010332200, 20.00000000000000000, 0.0000000000000000000 ) ) ;
#78 = CC_DESIGN_PERSON_AND_ORGANIZATION_ASSIGNMENT ( #98, #83, ( #52 ) ) ;
#79 = CARTESIAN_POINT ( 'NONE',  ( 11.95445115010331900, 20.00000000000000000, 1.463998033653742700E-015 ) ) ;
#80 = EDGE_LOOP ( 'NONE', ( #69, #22, #3 ) ) ;
#81 = APPROVAL_STATUS ( 'not_yet_approved' ) ;
#82 =( LENGTH_UNIT ( ) NAMED_UNIT ( * ) SI_UNIT ( .MILLI., .METRE. ) );
#83 = PERSON_AND_ORGANIZATION_ROLE ( 'creator' ) ;
#84 = DIRECTION ( 'NONE',  ( 0.0000000000000000000, 0.0000000000000000000, 1.000000000000000000 ) ) ;
#85 = EDGE_CURVE ( 'NONE', #131, #87, #156, .T. ) ;
#86 = SPHERICAL_SURFACE ( 'NONE', #202, 13.00000000000000000 ) ;
#87 = VERTEX_POINT ( 'NONE', #79 ) ;
#88 = MANIFOLD_SOLID_BREP ( 'Révolution1', #175 ) ;
#89 = DESIGN_CONTEXT ( 'detailed design', #66, 'design' ) ;
#90 = APPROVAL ( #41, 'UNSPECIFIED' ) ;
#91 = EDGE_CURVE ( 'NONE', #4, #148, #107, .T. ) ;
#92 = ORIENTED_EDGE ( 'NONE', *, *, #91, .F. ) ;
#93 = LINE ( 'NONE', #119, #58 ) ;
#94 = AXIS2_PLACEMENT_3D ( 'NONE', #43, #173, #124 ) ;
#95 = PRODUCT ( 'Support_BrasBas_Micro_Un_sldprt', 'Support_BrasBas_Micro_Un_sldprt', '', ( #42 ) ) ;
#96 = ORIENTED_EDGE ( 'NONE', *, *, #18, .T. ) ;
#97 = CC_DESIGN_SECURITY_CLASSIFICATION ( #10, ( #71 ) ) ;
#98 = PERSON_AND_ORGANIZATION ( #55, #129 ) ;
#99 = ORIENTED_EDGE ( 'NONE', *, *, #211, .F. ) ;
#100 = DIRECTION ( 'NONE',  ( -1.000000000000000000, -9.886599377536128500E-017, 0.0000000000000000000 ) ) ;
#101 = CARTESIAN_POINT ( 'NONE',  ( 4.892374996339172600E-016, 14.00000000000000000, 0.0000000000000000000 ) ) ;
#102 = PRODUCT_RELATED_PRODUCT_CATEGORY ( 'detail', '', ( #95 ) ) ;
#103 = DATE_AND_TIME ( #143, #36 ) ;
#104 = ORIENTED_EDGE ( 'NONE', *, *, #196, .F. ) ;
#105 = DIRECTION ( 'NONE',  ( -9.886599377536129800E-017, 1.000000000000000000, -0.0000000000000000000 ) ) ;
#106 = CARTESIAN_POINT ( 'NONE',  ( 0.0000000000000000000, 27.00000000000000000, 0.0000000000000000000 ) ) ;
#107 = CIRCLE ( 'NONE', #160, 11.95445115010332200 ) ;
#108 = PERSON_AND_ORGANIZATION_ROLE ( 'classification_officer' ) ;
#109 = CARTESIAN_POINT ( 'NONE',  ( -1.977319875507226100E-015, 20.00000000000000000, 0.0000000000000000000 ) ) ;
#110 = ADVANCED_FACE ( 'NONE', ( #19 ), #150, .T. ) ;
#111 = APPROVAL ( #81, 'UNSPECIFIED' ) ;
#112 = EDGE_LOOP ( 'NONE', ( #92, #9 ) ) ;
#113 = PERSON_AND_ORGANIZATION ( #55, #129 ) ;
#114 = EDGE_LOOP ( 'NONE', ( #73, #14 ) ) ;
#115 = EDGE_CURVE ( 'NONE', #4, #131, #93, .T. ) ;
#116 = DIRECTION ( 'NONE',  ( 1.000000000000000000, 0.0000000000000000000, 1.224646799147353200E-016 ) ) ;
#117 = CARTESIAN_POINT ( 'NONE',  ( 0.0000000000000000000, 27.00000000000000000, 0.0000000000000000000 ) ) ;
#118 = ORIENTED_EDGE ( 'NONE', *, *, #230, .T. ) ;
#119 = CARTESIAN_POINT ( 'NONE',  ( -11.95445115010332200, 13.99999999999999800, 0.0000000000000000000 ) ) ;
#120 = CC_DESIGN_DATE_AND_TIME_ASSIGNMENT ( #212, #171, ( #52 ) ) ;
#121 = DIRECTION ( 'NONE',  ( -1.000000000000000000, 0.0000000000000000000, 0.0000000000000000000 ) ) ;
#122 = DIRECTION ( 'NONE',  ( -9.886599377536129800E-017, 1.000000000000000000, -0.0000000000000000000 ) ) ;
#123 = PERSON_AND_ORGANIZATION ( #55, #129 ) ;
#124 = DIRECTION ( 'NONE',  ( -1.000000000000000000, -1.451110932819206900E-016, 0.0000000000000000000 ) ) ;
#125 = CC_DESIGN_PERSON_AND_ORGANIZATION_ASSIGNMENT ( #113, #108, ( #10 ) ) ;
#126 = DIRECTION ( 'NONE',  ( 0.0000000000000000000, 0.0000000000000000000, 1.000000000000000000 ) ) ;
#127 = ADVANCED_FACE ( 'NONE', ( #49, #198 ), #13, .T. ) ;
#128 = AXIS2_PLACEMENT_3D ( 'NONE', #135, #37, #167 ) ;
#129 = ORGANIZATION ( 'UNSPECIFIED', 'UNSPECIFIED', '' ) ;
#130 = UNCERTAINTY_MEASURE_WITH_UNIT (LENGTH_MEASURE( 1.000000000000000100E-005 ), #82, 'distance_accuracy_value', 'NONE');
#131 = VERTEX_POINT ( 'NONE', #77 ) ;
#132 = CARTESIAN_POINT ( 'NONE',  ( 11.95445115010332400, 1.181888692993975800E-015, 1.463998033653743100E-015 ) ) ;
#133 = AXIS2_PLACEMENT_3D ( 'NONE', #165, #59, #121 ) ;
#134 = ORIENTED_EDGE ( 'NONE', *, *, #85, .F. ) ;
#135 = CARTESIAN_POINT ( 'NONE',  ( 2.420463324327144500E-032, -2.448226363684573500E-016, 0.0000000000000000000 ) ) ;
#136 = APPLICATION_CONTEXT ( 'configuration controlled 3d designs of mechanical parts and assemblies' ) ;
#137 = CARTESIAN_POINT ( 'NONE',  ( 0.0000000000000000000, 0.0000000000000000000, 0.0000000000000000000 ) ) ;
#138 = APPROVAL_ROLE ( '' ) ;
#139 = FACE_OUTER_BOUND ( 'NONE', #47, .T. ) ;
#140 = DATE_TIME_ROLE ( 'classification_date' ) ;
#141 = COORDINATED_UNIVERSAL_TIME_OFFSET ( 1, 0, .AHEAD. ) ;
#142 = CC_DESIGN_APPROVAL ( #90, ( #71 ) ) ;
#143 = CALENDAR_DATE ( 2018, 10, 4 ) ;
#144 = VERTEX_POINT ( 'NONE', #101 ) ;
#145 = EDGE_CURVE ( 'NONE', #144, #229, #8, .T. ) ;
#146 = APPROVAL_DATE_TIME ( #53, #17 ) ;
#147 = PERSON_AND_ORGANIZATION ( #55, #129 ) ;
#148 = VERTEX_POINT ( 'NONE', #132 ) ;
#149 = CARTESIAN_POINT ( 'NONE',  ( -11.95445115010332200, -1.181888692993975600E-015, 0.0000000000000000000 ) ) ;
#150 = PLANE ( 'NONE',  #128 ) ;
#151 = CIRCLE ( 'NONE', #38, 10.95445115010332100 ) ;
#152 = DIRECTION ( 'NONE',  ( -9.886599377536129800E-017, 1.000000000000000000, -0.0000000000000000000 ) ) ;
#153 =( NAMED_UNIT ( * ) SI_UNIT ( $, .STERADIAN. ) SOLID_ANGLE_UNIT ( ) );
#154 = APPROVAL_ROLE ( '' ) ;
#155 = PERSON_AND_ORGANIZATION ( #55, #129 ) ;
#156 = CIRCLE ( 'NONE', #133, 11.95445115010332100 ) ;
#157 = APPLICATION_PROTOCOL_DEFINITION ( 'international standard', 'config_control_design', 1994, #136 ) ;
#158 = ORIENTED_EDGE ( 'NONE', *, *, #164, .T. ) ;
#159 = CARTESIAN_POINT ( 'NONE',  ( -10.95445115010332200, 19.99999999999999600, 0.0000000000000000000 ) ) ;
#160 = AXIS2_PLACEMENT_3D ( 'NONE', #181, #61, #100 ) ;
#161 = FACE_OUTER_BOUND ( 'NONE', #210, .T. ) ;
#162 = CALENDAR_DATE ( 2018, 10, 4 ) ;
#163 = ORIENTED_EDGE ( 'NONE', *, *, #196, .T. ) ;
#164 = EDGE_CURVE ( 'NONE', #144, #193, #2, .T. ) ;
#165 = CARTESIAN_POINT ( 'NONE',  ( -1.977319875507226100E-015, 20.00000000000000000, 0.0000000000000000000 ) ) ;
#166 = CIRCLE ( 'NONE', #7, 11.95445115010332200 ) ;
#167 = DIRECTION ( 'NONE',  ( 1.000000000000000000, 9.886599377536129800E-017, 0.0000000000000000000 ) ) ;
#168 = ADVANCED_FACE ( 'NONE', ( #32 ), #189, .F. ) ;
#169 = DIRECTION ( 'NONE',  ( -1.000000000000000000, -9.886599377536128500E-017, 0.0000000000000000000 ) ) ;
#170 = PERSON_AND_ORGANIZATION_ROLE ( 'creator' ) ;
#171 = DATE_TIME_ROLE ( 'creation_date' ) ;
#172 = CARTESIAN_POINT ( 'NONE',  ( 0.0000000000000000000, 0.0000000000000000000, 0.0000000000000000000 ) ) ;
#173 = DIRECTION ( 'NONE',  ( -9.886599377536129800E-017, 1.000000000000000000, -0.0000000000000000000 ) ) ;
#174 = COORDINATED_UNIVERSAL_TIME_OFFSET ( 1, 0, .AHEAD. ) ;
#175 = CLOSED_SHELL ( 'NONE', ( #183, #168, #203, #127, #214, #110 ) ) ;
#176 = COORDINATED_UNIVERSAL_TIME_OFFSET ( 1, 0, .AHEAD. ) ;
#177 = CIRCLE ( 'NONE', #221, 11.95445115010332100 ) ;
#178 = ORIENTED_EDGE ( 'NONE', *, *, #48, .F. ) ;
#179 = APPROVAL_DATE_TIME ( #231, #90 ) ;
#180 = CARTESIAN_POINT ( 'NONE',  ( 0.0000000000000000000, 27.00000000000000000, 0.0000000000000000000 ) ) ;
#181 = CARTESIAN_POINT ( 'NONE',  ( 0.0000000000000000000, 0.0000000000000000000, 0.0000000000000000000 ) ) ;
#182 = DIRECTION ( 'NONE',  ( -1.000000000000000000, -9.886599377536129800E-017, 0.0000000000000000000 ) ) ;
#183 = ADVANCED_FACE ( 'NONE', ( #161 ), #26, .T. ) ;
#184 = ORIENTED_EDGE ( 'NONE', *, *, #145, .F. ) ;
#185 = DIRECTION ( 'NONE',  ( -9.886599377536129800E-017, 1.000000000000000000, -0.0000000000000000000 ) ) ;
#186 = DIRECTION ( 'NONE',  ( -1.000000000000000000, 0.0000000000000000000, 0.0000000000000000000 ) ) ;
#187 = DIRECTION ( 'NONE',  ( -9.886599377536129800E-017, 1.000000000000000000, -0.0000000000000000000 ) ) ;
#188 = DIRECTION ( 'NONE',  ( -1.000000000000000000, 0.0000000000000000000, 0.0000000000000000000 ) ) ;
#189 = SPHERICAL_SURFACE ( 'NONE', #60, 13.00000000000000000 ) ;
#190 = ORIENTED_EDGE ( 'NONE', *, *, #18, .F. ) ;
#191 = AXIS2_PLACEMENT_3D ( 'NONE', #180, #199, #116 ) ;
#192 = LOCAL_TIME ( 9, 33, 58.00000000000000000, #25 ) ;
#193 = VERTEX_POINT ( 'NONE', #159 ) ;
#194 = CC_DESIGN_DATE_AND_TIME_ASSIGNMENT ( #208, #140, ( #10 ) ) ;
#195 = AXIS2_PLACEMENT_3D ( 'NONE', #218, #62, #182 ) ;
#196 = EDGE_CURVE ( 'NONE', #193, #229, #12, .T. ) ;
#197 = EDGE_LOOP ( 'NONE', ( #190, #118, #45, #99 ) ) ;
#198 = FACE_BOUND ( 'NONE', #225, .T. ) ;
#199 = DIRECTION ( 'NONE',  ( -1.224646799147353200E-016, -1.210759228215183600E-032, 1.000000000000000000 ) ) ;
#200 = CARTESIAN_POINT ( 'NONE',  ( 11.95445115010331900, 14.00000000000000200, 1.463998033653742700E-015 ) ) ;
#201 = CARTESIAN_POINT ( 'NONE',  ( -1.977319875507226100E-015, 20.00000000000000000, 0.0000000000000000000 ) ) ;
#202 = AXIS2_PLACEMENT_3D ( 'NONE', #106, #84, #186 ) ;
#203 = ADVANCED_FACE ( 'NONE', ( #139 ), #86, .F. ) ;
#204 = CARTESIAN_POINT ( 'NONE',  ( -1.384123912855058200E-015, 14.00000000000000000, 0.0000000000000000000 ) ) ;
#205 = AXIS2_PLACEMENT_3D ( 'NONE', #204, #187, #226 ) ;
#206 = DIRECTION ( 'NONE',  ( 1.000000000000000000, 0.0000000000000000000, 0.0000000000000000000 ) ) ;
#207 = PERSON_AND_ORGANIZATION_ROLE ( 'design_supplier' ) ;
#208 = DATE_AND_TIME ( #222, #192 ) ;
#209 = CC_DESIGN_PERSON_AND_ORGANIZATION_ASSIGNMENT ( #224, #207, ( #71 ) ) ;
#210 = EDGE_LOOP ( 'NONE', ( #63, #96, #134, #33 ) ) ;
#211 = EDGE_CURVE ( 'NONE', #87, #131, #177, .T. ) ;
#212 = DATE_AND_TIME ( #162, #6 ) ;
#213 = FACE_OUTER_BOUND ( 'NONE', #197, .T. ) ;
#214 = ADVANCED_FACE ( 'NONE', ( #213 ), #220, .T. ) ;
#215 = COORDINATED_UNIVERSAL_TIME_OFFSET ( 1, 0, .AHEAD. ) ;
#216 = AXIS2_PLACEMENT_3D ( 'NONE', #29, #122, #188 ) ;
#217 = DIRECTION ( 'NONE',  ( -1.000000000000000000, 0.0000000000000000000, 0.0000000000000000000 ) ) ;
#218 = CARTESIAN_POINT ( 'NONE',  ( -11.95445115010332200, 20.00000000000000000, 0.0000000000000000000 ) ) ;
#219 = APPROVAL_PERSON_ORGANIZATION ( #147, #111, #154 ) ;
#220 = CYLINDRICAL_SURFACE ( 'NONE', #94, 11.95445115010332100 ) ;
#221 = AXIS2_PLACEMENT_3D ( 'NONE', #109, #105, #65 ) ;
#222 = CALENDAR_DATE ( 2018, 10, 4 ) ;
#223 = CARTESIAN_POINT ( 'NONE',  ( 10.95445115010331900, 20.00000000000000400, 1.341533353739007300E-015 ) ) ;
#224 = PERSON_AND_ORGANIZATION ( #55, #129 ) ;
#225 = EDGE_LOOP ( 'NONE', ( #104, #178 ) ) ;
#226 = DIRECTION ( 'NONE',  ( -1.000000000000000000, -1.451110932819206900E-016, 0.0000000000000000000 ) ) ;
#227 = APPROVAL_PERSON_ORGANIZATION ( #23, #90, #138 ) ;
#228 = DIRECTION ( 'NONE',  ( -1.000000000000000000, 0.0000000000000000000, 0.0000000000000000000 ) ) ;
#229 = VERTEX_POINT ( 'NONE', #223 ) ;
#230 = EDGE_CURVE ( 'NONE', #148, #4, #166, .T. ) ;
#231 = DATE_AND_TIME ( #75, #40 ) ;
ENDSEC;
END-ISO-10303-21;
