ISO-10303-21;
HEADER;
FILE_DESCRIPTION (( 'STEP AP203' ),
    '1' );
FILE_NAME ('Support_BrasHaut_Micro_Un_sldprt.STEP',
    '2018-04-10T07:33:58',
    ( '' ),
    ( '' ),
    'SwSTEP 2.0',
    'SolidWorks 2017',
    '' );
FILE_SCHEMA (( 'CONFIG_CONTROL_DESIGN' ));
ENDSEC;

DATA;
#1 = PERSON_AND_ORGANIZATION ( #57, #187 ) ;
#2 = AXIS2_PLACEMENT_3D ( 'NONE', #153, #77, #80 ) ;
#3 = FACE_OUTER_BOUND ( 'NONE', #53, .T. ) ;
#4 = CARTESIAN_POINT ( 'NONE',  ( 21.40220576310316500, 24.99999999999999600, 2.621014278247732400E-015 ) ) ;
#5 = DIRECTION ( 'NONE',  ( 1.000000000000000000, 0.0000000000000000000, 1.224646799147353500E-016 ) ) ;
#6 = SPHERICAL_SURFACE ( 'NONE', #203, 20.49999999999999600 ) ;
#7 = CARTESIAN_POINT ( 'NONE',  ( 20.40220576310316500, 24.99999999999999600, 2.498549598332996900E-015 ) ) ;
#8 = CC_DESIGN_APPROVAL ( #190, ( #212 ) ) ;
#9 = APPROVAL_ROLE ( '' ) ;
#10 = APPROVAL_STATUS ( 'not_yet_approved' ) ;
#11 = ORIENTED_EDGE ( 'NONE', *, *, #72, .F. ) ;
#12 = CARTESIAN_POINT ( 'NONE',  ( -4.215597358829012900E-017, 6.500000000000000000, 0.0000000000000000000 ) ) ;
#13 = APPLICATION_PROTOCOL_DEFINITION ( 'international standard', 'config_control_design', 1994, #84 ) ;
#14 = CARTESIAN_POINT ( 'NONE',  ( -21.40220576310316500, 6.500000000000000000, 0.0000000000000000000 ) ) ;
#15 = CC_DESIGN_PERSON_AND_ORGANIZATION_ASSIGNMENT ( #86, #32, ( #163 ) ) ;
#16 = ORIENTED_EDGE ( 'NONE', *, *, #51, .T. ) ;
#17 = EDGE_CURVE ( 'NONE', #140, #92, #34, .T. ) ;
#18 = APPROVAL_DATE_TIME ( #204, #79 ) ;
#19 = EDGE_LOOP ( 'NONE', ( #11, #196 ) ) ;
#20 = UNCERTAINTY_MEASURE_WITH_UNIT (LENGTH_MEASURE( 1.000000000000000100E-005 ), #103, 'distance_accuracy_value', 'NONE');
#21 = ORIENTED_EDGE ( 'NONE', *, *, #194, .T. ) ;
#22 = CC_DESIGN_PERSON_AND_ORGANIZATION_ASSIGNMENT ( #29, #67, ( #231 ) ) ;
#23 = DIRECTION ( 'NONE',  ( 0.0000000000000000000, 0.0000000000000000000, 1.000000000000000000 ) ) ;
#24 = PLANE ( 'NONE',  #229 ) ;
#25 = VERTEX_POINT ( 'NONE', #201 ) ;
#26 =( NAMED_UNIT ( * ) PLANE_ANGLE_UNIT ( ) SI_UNIT ( $, .RADIAN. ) );
#27 = APPROVAL_STATUS ( 'not_yet_approved' ) ;
#28 = DIRECTION ( 'NONE',  ( -6.485534398198482400E-018, 1.000000000000000000, -0.0000000000000000000 ) ) ;
#29 = PERSON_AND_ORGANIZATION ( #57, #187 ) ;
#30 = PRODUCT_DEFINITION ( 'UNKNOWN', '', #212, #117 ) ;
#31 = ORIENTED_EDGE ( 'NONE', *, *, #39, .T. ) ;
#32 = PERSON_AND_ORGANIZATION_ROLE ( 'design_owner' ) ;
#33 = CC_DESIGN_DATE_AND_TIME_ASSIGNMENT ( #138, #172, ( #231 ) ) ;
#34 = CIRCLE ( 'NONE', #104, 21.40220576310316500 ) ;
#35 = LOCAL_TIME ( 9, 33, 58.00000000000000000, #90 ) ;
#36 = ORIENTED_EDGE ( 'NONE', *, *, #62, .T. ) ;
#37 = CARTESIAN_POINT ( 'NONE',  ( -1.621383599549620400E-016, 24.99999999999999600, 0.0000000000000000000 ) ) ;
#38 = DIRECTION ( 'NONE',  ( -1.000000000000000000, 0.0000000000000000000, 0.0000000000000000000 ) ) ;
#39 = EDGE_CURVE ( 'NONE', #92, #140, #198, .T. ) ;
#40 = CIRCLE ( 'NONE', #46, 20.40220576310316500 ) ;
#41 = APPLICATION_PROTOCOL_DEFINITION ( 'international standard', 'config_control_design', 1994, #43 ) ;
#42 = DIRECTION ( 'NONE',  ( -6.485534398198482400E-018, 1.000000000000000000, -0.0000000000000000000 ) ) ;
#43 = APPLICATION_CONTEXT ( 'configuration controlled 3d designs of mechanical parts and assemblies' ) ;
#44 = FACE_OUTER_BOUND ( 'NONE', #126, .T. ) ;
#45 = APPROVAL_STATUS ( 'not_yet_approved' ) ;
#46 = AXIS2_PLACEMENT_3D ( 'NONE', #81, #76, #38 ) ;
#47 = ADVANCED_FACE ( 'NONE', ( #44 ), #144, .F. ) ;
#48 = CC_DESIGN_APPROVAL ( #161, ( #231 ) ) ;
#49 = CIRCLE ( 'NONE', #56, 20.49999999999999600 ) ;
#50 = ORIENTED_EDGE ( 'NONE', *, *, #91, .F. ) ;
#51 = EDGE_CURVE ( 'NONE', #111, #92, #120, .T. ) ;
#52 = DATE_AND_TIME ( #195, #114 ) ;
#53 = EDGE_LOOP ( 'NONE', ( #184, #16, #60, #151 ) ) ;
#54 = LINE ( 'NONE', #14, #96 ) ;
#55 = CYLINDRICAL_SURFACE ( 'NONE', #137, 21.40220576310316500 ) ;
#56 = AXIS2_PLACEMENT_3D ( 'NONE', #157, #171, #224 ) ;
#57 = PERSON ( 'UNSPECIFIED', 'UNSPECIFIED', 'UNSPECIFIED', ('UNSPECIFIED'), ('UNSPECIFIED'), ('UNSPECIFIED') ) ;
#58 = CIRCLE ( 'NONE', #94, 20.49999999999999600 ) ;
#59 = PERSON_AND_ORGANIZATION ( #57, #187 ) ;
#60 = ORIENTED_EDGE ( 'NONE', *, *, #17, .F. ) ;
#61 = CC_DESIGN_PERSON_AND_ORGANIZATION_ASSIGNMENT ( #199, #173, ( #212 ) ) ;
#62 = EDGE_CURVE ( 'NONE', #128, #74, #40, .T. ) ;
#63 = DIRECTION ( 'NONE',  ( -1.000000000000000000, 0.0000000000000000000, 0.0000000000000000000 ) ) ;
#64 = DIRECTION ( 'NONE',  ( -1.000000000000000000, 0.0000000000000000000, 0.0000000000000000000 ) ) ;
#65 = COORDINATED_UNIVERSAL_TIME_OFFSET ( 1, 0, .AHEAD. ) ;
#66 = DIRECTION ( 'NONE',  ( -1.000000000000000000, 0.0000000000000000000, 0.0000000000000000000 ) ) ;
#67 = PERSON_AND_ORGANIZATION_ROLE ( 'classification_officer' ) ;
#68 = LOCAL_TIME ( 9, 33, 58.00000000000000000, #118 ) ;
#69 = VERTEX_POINT ( 'NONE', #139 ) ;
#70 = FACE_OUTER_BOUND ( 'NONE', #159, .T. ) ;
#71 = CC_DESIGN_SECURITY_CLASSIFICATION ( #231, ( #212 ) ) ;
#72 = EDGE_CURVE ( 'NONE', #25, #111, #112, .T. ) ;
#73 = CLOSED_SHELL ( 'NONE', ( #188, #47, #101, #169, #205, #129 ) ) ;
#74 = VERTEX_POINT ( 'NONE', #7 ) ;
#75 = EDGE_LOOP ( 'NONE', ( #200, #213 ) ) ;
#76 = DIRECTION ( 'NONE',  ( -6.485534398198482400E-018, 1.000000000000000000, -0.0000000000000000000 ) ) ;
#77 = DIRECTION ( 'NONE',  ( -6.485534398198482400E-018, 1.000000000000000000, -0.0000000000000000000 ) ) ;
#78 = ORIENTED_EDGE ( 'NONE', *, *, #131, .T. ) ;
#79 = APPROVAL ( #10, 'UNSPECIFIED' ) ;
#80 = DIRECTION ( 'NONE',  ( -1.000000000000000000, 0.0000000000000000000, 0.0000000000000000000 ) ) ;
#81 = CARTESIAN_POINT ( 'NONE',  ( -1.621383599549620400E-016, 24.99999999999999600, 0.0000000000000000000 ) ) ;
#82 = CALENDAR_DATE ( 2018, 10, 4 ) ;
#83 = CARTESIAN_POINT ( 'NONE',  ( -21.40220576310316500, 24.99999999999999600, 0.0000000000000000000 ) ) ;
#84 = APPLICATION_CONTEXT ( 'configuration controlled 3d designs of mechanical parts and assemblies' ) ;
#85 = COORDINATED_UNIVERSAL_TIME_OFFSET ( 1, 0, .AHEAD. ) ;
#86 = PERSON_AND_ORGANIZATION ( #57, #187 ) ;
#87 = ORIENTED_EDGE ( 'NONE', *, *, #91, .T. ) ;
#88 = AXIS2_PLACEMENT_3D ( 'NONE', #202, #180, #115 ) ;
#89 =( GEOMETRIC_REPRESENTATION_CONTEXT ( 3 ) GLOBAL_UNCERTAINTY_ASSIGNED_CONTEXT ( ( #20 ) ) GLOBAL_UNIT_ASSIGNED_CONTEXT ( ( #103, #26, #225 ) ) REPRESENTATION_CONTEXT ( 'NONE', 'WORKASPACE' ) );
#90 = COORDINATED_UNIVERSAL_TIME_OFFSET ( 1, 0, .AHEAD. ) ;
#91 = EDGE_CURVE ( 'NONE', #69, #74, #58, .T. ) ;
#92 = VERTEX_POINT ( 'NONE', #4 ) ;
#93 = APPROVAL_PERSON_ORGANIZATION ( #1, #79, #142 ) ;
#94 = AXIS2_PLACEMENT_3D ( 'NONE', #220, #116, #5 ) ;
#95 = PRODUCT_RELATED_PRODUCT_CATEGORY ( 'detail', '', ( #163 ) ) ;
#96 = VECTOR ( 'NONE', #105, 1000.000000000000000 ) ;
#97 = DIRECTION ( 'NONE',  ( 6.485534398198482400E-018, -1.000000000000000000, 0.0000000000000000000 ) ) ;
#98 = ADVANCED_BREP_SHAPE_REPRESENTATION ( 'Support_BrasHaut_Micro_Un_sldprt', ( #223, #102 ), #89 ) ;
#99 = DIRECTION ( 'NONE',  ( -1.000000000000000000, 0.0000000000000000000, 0.0000000000000000000 ) ) ;
#100 = CARTESIAN_POINT ( 'NONE',  ( -20.40220576310316500, 24.99999999999999600, 0.0000000000000000000 ) ) ;
#101 = ADVANCED_FACE ( 'NONE', ( #154 ), #6, .F. ) ;
#102 = AXIS2_PLACEMENT_3D ( 'NONE', #189, #146, #206 ) ;
#103 =( LENGTH_UNIT ( ) NAMED_UNIT ( * ) SI_UNIT ( .MILLI., .METRE. ) );
#104 = AXIS2_PLACEMENT_3D ( 'NONE', #37, #218, #183 ) ;
#105 = DIRECTION ( 'NONE',  ( -6.485534398198482400E-018, 1.000000000000000000, -0.0000000000000000000 ) ) ;
#106 = CARTESIAN_POINT ( 'NONE',  ( -21.40220576310316500, 24.99999999999999600, 0.0000000000000000000 ) ) ;
#107 = CARTESIAN_POINT ( 'NONE',  ( -1.621383599549620400E-016, 24.99999999999999600, 0.0000000000000000000 ) ) ;
#108 = CC_DESIGN_PERSON_AND_ORGANIZATION_ASSIGNMENT ( #148, #174, ( #212 ) ) ;
#109 = AXIS2_PLACEMENT_3D ( 'NONE', #83, #211, #209 ) ;
#110 = ORIENTED_EDGE ( 'NONE', *, *, #39, .F. ) ;
#111 = VERTEX_POINT ( 'NONE', #182 ) ;
#112 = CIRCLE ( 'NONE', #88, 21.40220576310316500 ) ;
#113 = AXIS2_PLACEMENT_3D ( 'NONE', #107, #28, #227 ) ;
#114 = LOCAL_TIME ( 9, 33, 58.00000000000000000, #85 ) ;
#115 = DIRECTION ( 'NONE',  ( -1.000000000000000000, -6.485534398198487000E-018, 0.0000000000000000000 ) ) ;
#116 = DIRECTION ( 'NONE',  ( -1.224646799147353200E-016, -7.942488941513826500E-034, 1.000000000000000000 ) ) ;
#117 = DESIGN_CONTEXT ( 'detailed design', #43, 'design' ) ;
#118 = COORDINATED_UNIVERSAL_TIME_OFFSET ( 1, 0, .AHEAD. ) ;
#119 = CC_DESIGN_DATE_AND_TIME_ASSIGNMENT ( #52, #145, ( #30 ) ) ;
#120 = LINE ( 'NONE', #121, #162 ) ;
#121 = CARTESIAN_POINT ( 'NONE',  ( 21.40220576310316500, 6.500000000000000000, 2.621014278247732400E-015 ) ) ;
#122 = MECHANICAL_CONTEXT ( 'NONE', #84, 'mechanical' ) ;
#123 = APPROVAL_ROLE ( '' ) ;
#124 = CC_DESIGN_PERSON_AND_ORGANIZATION_ASSIGNMENT ( #125, #168, ( #30 ) ) ;
#125 = PERSON_AND_ORGANIZATION ( #57, #187 ) ;
#126 = EDGE_LOOP ( 'NONE', ( #170, #87, #78 ) ) ;
#127 = FACE_BOUND ( 'NONE', #75, .T. ) ;
#128 = VERTEX_POINT ( 'NONE', #100 ) ;
#129 = ADVANCED_FACE ( 'NONE', ( #135 ), #24, .T. ) ;
#130 = APPROVAL_DATE_TIME ( #216, #161 ) ;
#131 = EDGE_CURVE ( 'NONE', #74, #128, #215, .T. ) ;
#132 = COORDINATED_UNIVERSAL_TIME_OFFSET ( 1, 0, .AHEAD. ) ;
#133 = ORIENTED_EDGE ( 'NONE', *, *, #208, .T. ) ;
#134 = CARTESIAN_POINT ( 'NONE',  ( 0.0000000000000000000, 27.00000000000000000, 0.0000000000000000000 ) ) ;
#135 = FACE_OUTER_BOUND ( 'NONE', #19, .T. ) ;
#136 = CARTESIAN_POINT ( 'NONE',  ( 0.0000000000000000000, 27.00000000000000000, 0.0000000000000000000 ) ) ;
#137 = AXIS2_PLACEMENT_3D ( 'NONE', #12, #158, #66 ) ;
#138 = DATE_AND_TIME ( #178, #68 ) ;
#139 = CARTESIAN_POINT ( 'NONE',  ( -1.122309513962968000E-015, 6.500000000000002700, 0.0000000000000000000 ) ) ;
#140 = VERTEX_POINT ( 'NONE', #106 ) ;
#141 = DIRECTION ( 'NONE',  ( -1.000000000000000000, -6.485534398198487000E-018, 0.0000000000000000000 ) ) ;
#142 = APPROVAL_ROLE ( '' ) ;
#143 = DIRECTION ( 'NONE',  ( -6.485534398198482400E-018, 1.000000000000000000, -0.0000000000000000000 ) ) ;
#144 = SPHERICAL_SURFACE ( 'NONE', #217, 20.49999999999999600 ) ;
#145 = DATE_TIME_ROLE ( 'creation_date' ) ;
#146 = DIRECTION ( 'NONE',  ( 0.0000000000000000000, 0.0000000000000000000, 1.000000000000000000 ) ) ;
#147 = AXIS2_PLACEMENT_3D ( 'NONE', #186, #143, #141 ) ;
#148 = PERSON_AND_ORGANIZATION ( #57, #187 ) ;
#149 = CC_DESIGN_APPROVAL ( #79, ( #30 ) ) ;
#150 = LOCAL_TIME ( 9, 33, 58.00000000000000000, #65 ) ;
#151 = ORIENTED_EDGE ( 'NONE', *, *, #210, .F. ) ;
#152 = SHAPE_DEFINITION_REPRESENTATION ( #191, #98 ) ;
#153 = CARTESIAN_POINT ( 'NONE',  ( -1.621383599549620400E-016, 24.99999999999999600, 0.0000000000000000000 ) ) ;
#154 = FACE_OUTER_BOUND ( 'NONE', #176, .T. ) ;
#155 = DIRECTION ( 'NONE',  ( -6.485534398198482400E-018, 1.000000000000000000, -0.0000000000000000000 ) ) ;
#156 = CARTESIAN_POINT ( 'NONE',  ( 1.146362194889108300E-032, -1.767567827884065800E-015, 0.0000000000000000000 ) ) ;
#157 = CARTESIAN_POINT ( 'NONE',  ( 0.0000000000000000000, 27.00000000000000000, 0.0000000000000000000 ) ) ;
#158 = DIRECTION ( 'NONE',  ( -6.485534398198482400E-018, 1.000000000000000000, -0.0000000000000000000 ) ) ;
#159 = EDGE_LOOP ( 'NONE', ( #192, #133, #164, #110 ) ) ;
#160 = PLANE ( 'NONE',  #109 ) ;
#161 = APPROVAL ( #27, 'UNSPECIFIED' ) ;
#162 = VECTOR ( 'NONE', #155, 1000.000000000000000 ) ;
#163 = PRODUCT ( 'Support_BrasHaut_Micro_Un_sldprt', 'Support_BrasHaut_Micro_Un_sldprt', '', ( #122 ) ) ;
#164 = ORIENTED_EDGE ( 'NONE', *, *, #210, .T. ) ;
#165 = CALENDAR_DATE ( 2018, 10, 4 ) ;
#166 = FACE_OUTER_BOUND ( 'NONE', #175, .T. ) ;
#167 = ORIENTED_EDGE ( 'NONE', *, *, #17, .T. ) ;
#168 = PERSON_AND_ORGANIZATION_ROLE ( 'creator' ) ;
#169 = ADVANCED_FACE ( 'NONE', ( #166, #127 ), #160, .T. ) ;
#170 = ORIENTED_EDGE ( 'NONE', *, *, #194, .F. ) ;
#171 = DIRECTION ( 'NONE',  ( 0.0000000000000000000, -0.0000000000000000000, -1.000000000000000000 ) ) ;
#172 = DATE_TIME_ROLE ( 'classification_date' ) ;
#173 = PERSON_AND_ORGANIZATION_ROLE ( 'design_supplier' ) ;
#174 = PERSON_AND_ORGANIZATION_ROLE ( 'creator' ) ;
#175 = EDGE_LOOP ( 'NONE', ( #167, #31 ) ) ;
#176 = EDGE_LOOP ( 'NONE', ( #50, #21, #36 ) ) ;
#177 = APPROVAL_PERSON_ORGANIZATION ( #222, #161, #9 ) ;
#178 = CALENDAR_DATE ( 2018, 10, 4 ) ;
#179 = CALENDAR_DATE ( 2018, 10, 4 ) ;
#180 = DIRECTION ( 'NONE',  ( -6.485534398198482400E-018, 1.000000000000000000, -0.0000000000000000000 ) ) ;
#181 = DIRECTION ( 'NONE',  ( 0.0000000000000000000, 0.0000000000000000000, 1.000000000000000000 ) ) ;
#182 = CARTESIAN_POINT ( 'NONE',  ( 21.40220576310316500, -3.330642210279686700E-015, 2.621014278247732400E-015 ) ) ;
#183 = DIRECTION ( 'NONE',  ( -1.000000000000000000, 0.0000000000000000000, 0.0000000000000000000 ) ) ;
#184 = ORIENTED_EDGE ( 'NONE', *, *, #72, .T. ) ;
#185 = SECURITY_CLASSIFICATION_LEVEL ( 'unclassified' ) ;
#186 = CARTESIAN_POINT ( 'NONE',  ( 3.009265538105056000E-032, -3.469446951953614200E-015, 0.0000000000000000000 ) ) ;
#187 = ORGANIZATION ( 'UNSPECIFIED', 'UNSPECIFIED', '' ) ;
#188 = ADVANCED_FACE ( 'NONE', ( #3 ), #55, .T. ) ;
#189 = CARTESIAN_POINT ( 'NONE',  ( 0.0000000000000000000, 0.0000000000000000000, 0.0000000000000000000 ) ) ;
#190 = APPROVAL ( #45, 'UNSPECIFIED' ) ;
#191 = PRODUCT_DEFINITION_SHAPE ( 'NONE', 'NONE',  #30 ) ;
#192 = ORIENTED_EDGE ( 'NONE', *, *, #51, .F. ) ;
#193 = AXIS2_PLACEMENT_3D ( 'NONE', #228, #42, #64 ) ;
#194 = EDGE_CURVE ( 'NONE', #69, #128, #49, .T. ) ;
#195 = CALENDAR_DATE ( 2018, 10, 4 ) ;
#196 = ORIENTED_EDGE ( 'NONE', *, *, #208, .F. ) ;
#197 = CYLINDRICAL_SURFACE ( 'NONE', #193, 21.40220576310316500 ) ;
#198 = CIRCLE ( 'NONE', #2, 21.40220576310316500 ) ;
#199 = PERSON_AND_ORGANIZATION ( #57, #187 ) ;
#200 = ORIENTED_EDGE ( 'NONE', *, *, #62, .F. ) ;
#201 = CARTESIAN_POINT ( 'NONE',  ( -21.40220576310316500, -3.608251693627542100E-015, 0.0000000000000000000 ) ) ;
#202 = CARTESIAN_POINT ( 'NONE',  ( 3.009265538105056000E-032, -3.469446951953614200E-015, 0.0000000000000000000 ) ) ;
#203 = AXIS2_PLACEMENT_3D ( 'NONE', #136, #23, #99 ) ;
#204 = DATE_AND_TIME ( #179, #219 ) ;
#205 = ADVANCED_FACE ( 'NONE', ( #70 ), #197, .T. ) ;
#206 = DIRECTION ( 'NONE',  ( 1.000000000000000000, 0.0000000000000000000, 0.0000000000000000000 ) ) ;
#207 = CIRCLE ( 'NONE', #147, 21.40220576310316500 ) ;
#208 = EDGE_CURVE ( 'NONE', #111, #25, #207, .T. ) ;
#209 = DIRECTION ( 'NONE',  ( -1.000000000000000000, -6.485534398198482400E-018, 0.0000000000000000000 ) ) ;
#210 = EDGE_CURVE ( 'NONE', #25, #140, #54, .T. ) ;
#211 = DIRECTION ( 'NONE',  ( -6.485534398198482400E-018, 1.000000000000000000, 0.0000000000000000000 ) ) ;
#212 = PRODUCT_DEFINITION_FORMATION_WITH_SPECIFIED_SOURCE ( 'ANY', '', #163, .NOT_KNOWN. ) ;
#213 = ORIENTED_EDGE ( 'NONE', *, *, #131, .F. ) ;
#214 = APPROVAL_DATE_TIME ( #226, #190 ) ;
#215 = CIRCLE ( 'NONE', #113, 20.40220576310316500 ) ;
#216 = DATE_AND_TIME ( #82, #35 ) ;
#217 = AXIS2_PLACEMENT_3D ( 'NONE', #134, #181, #63 ) ;
#218 = DIRECTION ( 'NONE',  ( -6.485534398198482400E-018, 1.000000000000000000, -0.0000000000000000000 ) ) ;
#219 = LOCAL_TIME ( 9, 33, 58.00000000000000000, #132 ) ;
#220 = CARTESIAN_POINT ( 'NONE',  ( 0.0000000000000000000, 27.00000000000000000, 0.0000000000000000000 ) ) ;
#221 = DIRECTION ( 'NONE',  ( 1.000000000000000000, 6.485534398198482400E-018, 0.0000000000000000000 ) ) ;
#222 = PERSON_AND_ORGANIZATION ( #57, #187 ) ;
#223 = MANIFOLD_SOLID_BREP ( 'Révolution1', #73 ) ;
#224 = DIRECTION ( 'NONE',  ( -1.000000000000000000, 0.0000000000000000000, 0.0000000000000000000 ) ) ;
#225 =( NAMED_UNIT ( * ) SI_UNIT ( $, .STERADIAN. ) SOLID_ANGLE_UNIT ( ) );
#226 = DATE_AND_TIME ( #165, #150 ) ;
#227 = DIRECTION ( 'NONE',  ( -1.000000000000000000, 0.0000000000000000000, 0.0000000000000000000 ) ) ;
#228 = CARTESIAN_POINT ( 'NONE',  ( -4.215597358829012900E-017, 6.500000000000000000, 0.0000000000000000000 ) ) ;
#229 = AXIS2_PLACEMENT_3D ( 'NONE', #156, #97, #221 ) ;
#230 = APPROVAL_PERSON_ORGANIZATION ( #59, #190, #123 ) ;
#231 = SECURITY_CLASSIFICATION ( '', '', #185 ) ;
ENDSEC;
END-ISO-10303-21;
