ISO-10303-21;
HEADER;
FILE_DESCRIPTION (( 'STEP AP203' ),
    '1' );
FILE_NAME ('Nacelle_Défaut_sldprt.STEP',
    '2018-04-10T07:33:29',
    ( '' ),
    ( '' ),
    'SwSTEP 2.0',
    'SolidWorks 2017',
    '' );
FILE_SCHEMA (( 'CONFIG_CONTROL_DESIGN' ));
ENDSEC;

DATA;
#1 = APPROVAL_DATE_TIME ( #25, #54 ) ;
#2 = CARTESIAN_POINT ( 'NONE',  ( 0.0000000000000000000, 0.0000000000000000000, 10.00000000000000000 ) ) ;
#3 = ORIENTED_EDGE ( 'NONE', *, *, #174, .T. ) ;
#4 = APPROVAL_ROLE ( '' ) ;
#5 = DIRECTION ( 'NONE',  ( 1.000000000000000000, 0.0000000000000000000, 0.0000000000000000000 ) ) ;
#6 = DIRECTION ( 'NONE',  ( -1.000000000000000000, 0.0000000000000000000, 0.0000000000000000000 ) ) ;
#7 = EDGE_CURVE ( 'NONE', #135, #70, #23, .T. ) ;
#8 = PERSON_AND_ORGANIZATION ( #52, #106 ) ;
#9 = ORIENTED_EDGE ( 'NONE', *, *, #152, .F. ) ;
#10 = AXIS2_PLACEMENT_3D ( 'NONE', #92, #130, #144 ) ;
#11 = DIRECTION ( 'NONE',  ( -0.0000000000000000000, -0.0000000000000000000, -1.000000000000000000 ) ) ;
#12 = EDGE_LOOP ( 'NONE', ( #9, #163, #124, #162 ) ) ;
#13 = CC_DESIGN_APPROVAL ( #54, ( #42 ) ) ;
#14 = PLANE ( 'NONE',  #58 ) ;
#15 = SECURITY_CLASSIFICATION_LEVEL ( 'unclassified' ) ;
#16 = PLANE ( 'NONE',  #158 ) ;
#17 = DATE_AND_TIME ( #156, #60 ) ;
#18 = PERSON_AND_ORGANIZATION ( #52, #106 ) ;
#19 = CARTESIAN_POINT ( 'NONE',  ( 0.0000000000000000000, 0.0000000000000000000, 0.0000000000000000000 ) ) ;
#20 = PERSON_AND_ORGANIZATION_ROLE ( 'creator' ) ;
#21 = APPLICATION_PROTOCOL_DEFINITION ( 'international standard', 'config_control_design', 1994, #39 ) ;
#22 = LOCAL_TIME ( 9, 33, 29.00000000000000000, #33 ) ;
#23 = LINE ( 'NONE', #121, #117 ) ;
#24 = CC_DESIGN_PERSON_AND_ORGANIZATION_ASSIGNMENT ( #89, #102, ( #42 ) ) ;
#25 = DATE_AND_TIME ( #94, #65 ) ;
#26 = LINE ( 'NONE', #67, #161 ) ;
#27 = ORIENTED_EDGE ( 'NONE', *, *, #174, .F. ) ;
#28 = PERSON_AND_ORGANIZATION ( #52, #106 ) ;
#29 = APPROVAL ( #159, 'UNSPECIFIED' ) ;
#30 = CARTESIAN_POINT ( 'NONE',  ( 149.9999999999999700, 1.836970198721029400E-014, 0.0000000000000000000 ) ) ;
#31 = DIRECTION ( 'NONE',  ( -1.000000000000000000, 0.0000000000000000000, 0.0000000000000000000 ) ) ;
#32 =( GEOMETRIC_REPRESENTATION_CONTEXT ( 3 ) GLOBAL_UNCERTAINTY_ASSIGNED_CONTEXT ( ( #164 ) ) GLOBAL_UNIT_ASSIGNED_CONTEXT ( ( #168, #103, #126 ) ) REPRESENTATION_CONTEXT ( 'NONE', 'WORKASPACE' ) );
#33 = COORDINATED_UNIVERSAL_TIME_OFFSET ( 1, 0, .AHEAD. ) ;
#34 = CC_DESIGN_SECURITY_CLASSIFICATION ( #175, ( #36 ) ) ;
#35 = APPROVAL_STATUS ( 'not_yet_approved' ) ;
#36 = PRODUCT_DEFINITION_FORMATION_WITH_SPECIFIED_SOURCE ( 'ANY', '', #38, .NOT_KNOWN. ) ;
#37 = DIRECTION ( 'NONE',  ( -0.0000000000000000000, -0.0000000000000000000, -1.000000000000000000 ) ) ;
#38 = PRODUCT ( 'Nacelle_Défaut_sldprt', 'Nacelle_Défaut_sldprt', '', ( #167 ) ) ;
#39 = APPLICATION_CONTEXT ( 'configuration controlled 3d designs of mechanical parts and assemblies' ) ;
#40 = DATE_AND_TIME ( #75, #22 ) ;
#41 = DATE_AND_TIME ( #148, #160 ) ;
#42 = PRODUCT_DEFINITION ( 'UNKNOWN', '', #36, #172 ) ;
#43 = CC_DESIGN_PERSON_AND_ORGANIZATION_ASSIGNMENT ( #105, #20, ( #36 ) ) ;
#44 = FACE_OUTER_BOUND ( 'NONE', #133, .T. ) ;
#45 = ADVANCED_BREP_SHAPE_REPRESENTATION ( 'Nacelle_DÚfaut_sldprt', ( #138, #149 ), #32 ) ;
#46 = DIRECTION ( 'NONE',  ( -0.0000000000000000000, -0.0000000000000000000, -1.000000000000000000 ) ) ;
#47 = FACE_OUTER_BOUND ( 'NONE', #48, .T. ) ;
#48 = EDGE_LOOP ( 'NONE', ( #72, #95 ) ) ;
#49 = CARTESIAN_POINT ( 'NONE',  ( 0.0000000000000000000, 0.0000000000000000000, 0.0000000000000000000 ) ) ;
#50 = ADVANCED_FACE ( 'NONE', ( #134 ), #61, .T. ) ;
#51 = COORDINATED_UNIVERSAL_TIME_OFFSET ( 1, 0, .AHEAD. ) ;
#52 = PERSON ( 'UNSPECIFIED', 'UNSPECIFIED', 'UNSPECIFIED', ('UNSPECIFIED'), ('UNSPECIFIED'), ('UNSPECIFIED') ) ;
#53 = DIRECTION ( 'NONE',  ( 0.0000000000000000000, 0.0000000000000000000, 1.000000000000000000 ) ) ;
#54 = APPROVAL ( #91, 'UNSPECIFIED' ) ;
#55 = DIRECTION ( 'NONE',  ( 1.000000000000000000, 0.0000000000000000000, -0.0000000000000000000 ) ) ;
#56 = CIRCLE ( 'NONE', #132, 149.9999999999999700 ) ;
#57 = CC_DESIGN_PERSON_AND_ORGANIZATION_ASSIGNMENT ( #123, #110, ( #36 ) ) ;
#58 = AXIS2_PLACEMENT_3D ( 'NONE', #100, #108, #55 ) ;
#59 = CC_DESIGN_DATE_AND_TIME_ASSIGNMENT ( #17, #104, ( #42 ) ) ;
#60 = LOCAL_TIME ( 9, 33, 29.00000000000000000, #51 ) ;
#61 = CYLINDRICAL_SURFACE ( 'NONE', #99, 149.9999999999999700 ) ;
#62 = DIRECTION ( 'NONE',  ( 1.000000000000000000, 0.0000000000000000000, 0.0000000000000000000 ) ) ;
#63 = CARTESIAN_POINT ( 'NONE',  ( 149.9999999999999700, 1.836970198721029400E-014, 10.00000000000000000 ) ) ;
#64 = DIRECTION ( 'NONE',  ( 0.0000000000000000000, 0.0000000000000000000, 1.000000000000000000 ) ) ;
#65 = LOCAL_TIME ( 9, 33, 29.00000000000000000, #87 ) ;
#66 = FACE_OUTER_BOUND ( 'NONE', #98, .T. ) ;
#67 = CARTESIAN_POINT ( 'NONE',  ( -149.9999999999999700, 0.0000000000000000000, 10.00000000000000000 ) ) ;
#68 = AXIS2_PLACEMENT_3D ( 'NONE', #19, #76, #5 ) ;
#69 = CALENDAR_DATE ( 2018, 10, 4 ) ;
#70 = VERTEX_POINT ( 'NONE', #30 ) ;
#71 = CC_DESIGN_DATE_AND_TIME_ASSIGNMENT ( #40, #142, ( #175 ) ) ;
#72 = ORIENTED_EDGE ( 'NONE', *, *, #147, .F. ) ;
#73 = COORDINATED_UNIVERSAL_TIME_OFFSET ( 1, 0, .AHEAD. ) ;
#74 = SHAPE_DEFINITION_REPRESENTATION ( #143, #45 ) ;
#75 = CALENDAR_DATE ( 2018, 10, 4 ) ;
#76 = DIRECTION ( 'NONE',  ( 0.0000000000000000000, 0.0000000000000000000, 1.000000000000000000 ) ) ;
#77 = CARTESIAN_POINT ( 'NONE',  ( 0.0000000000000000000, 0.0000000000000000000, 0.0000000000000000000 ) ) ;
#78 = PRODUCT_RELATED_PRODUCT_CATEGORY ( 'detail', '', ( #38 ) ) ;
#79 = PERSON_AND_ORGANIZATION_ROLE ( 'design_owner' ) ;
#80 = ORIENTED_EDGE ( 'NONE', *, *, #7, .F. ) ;
#81 = APPROVAL_ROLE ( '' ) ;
#82 = ADVANCED_FACE ( 'NONE', ( #47 ), #14, .F. ) ;
#83 = APPROVAL ( #35, 'UNSPECIFIED' ) ;
#84 = DIRECTION ( 'NONE',  ( -0.0000000000000000000, -0.0000000000000000000, -1.000000000000000000 ) ) ;
#85 = CLOSED_SHELL ( 'NONE', ( #50, #129, #171, #82 ) ) ;
#86 = COORDINATED_UNIVERSAL_TIME_OFFSET ( 1, 0, .AHEAD. ) ;
#87 = COORDINATED_UNIVERSAL_TIME_OFFSET ( 1, 0, .AHEAD. ) ;
#88 = CC_DESIGN_APPROVAL ( #83, ( #36 ) ) ;
#89 = PERSON_AND_ORGANIZATION ( #52, #106 ) ;
#90 = DIRECTION ( 'NONE',  ( 0.0000000000000000000, 0.0000000000000000000, 1.000000000000000000 ) ) ;
#91 = APPROVAL_STATUS ( 'not_yet_approved' ) ;
#92 = CARTESIAN_POINT ( 'NONE',  ( 0.0000000000000000000, 0.0000000000000000000, 10.00000000000000000 ) ) ;
#93 = APPLICATION_PROTOCOL_DEFINITION ( 'international standard', 'config_control_design', 1994, #115 ) ;
#94 = CALENDAR_DATE ( 2018, 10, 4 ) ;
#95 = ORIENTED_EDGE ( 'NONE', *, *, #107, .F. ) ;
#96 = PERSON_AND_ORGANIZATION ( #52, #106 ) ;
#97 = APPROVAL_DATE_TIME ( #165, #29 ) ;
#98 = EDGE_LOOP ( 'NONE', ( #3, #166 ) ) ;
#99 = AXIS2_PLACEMENT_3D ( 'NONE', #2, #11, #31 ) ;
#100 = CARTESIAN_POINT ( 'NONE',  ( 0.0000000000000000000, 0.0000000000000000000, 0.0000000000000000000 ) ) ;
#101 = DIRECTION ( 'NONE',  ( 1.000000000000000000, 0.0000000000000000000, -0.0000000000000000000 ) ) ;
#102 = PERSON_AND_ORGANIZATION_ROLE ( 'creator' ) ;
#103 =( NAMED_UNIT ( * ) PLANE_ANGLE_UNIT ( ) SI_UNIT ( $, .RADIAN. ) );
#104 = DATE_TIME_ROLE ( 'creation_date' ) ;
#105 = PERSON_AND_ORGANIZATION ( #52, #106 ) ;
#106 = ORGANIZATION ( 'UNSPECIFIED', 'UNSPECIFIED', '' ) ;
#107 = EDGE_CURVE ( 'NONE', #70, #151, #145, .T. ) ;
#108 = DIRECTION ( 'NONE',  ( 0.0000000000000000000, 0.0000000000000000000, 1.000000000000000000 ) ) ;
#109 = AXIS2_PLACEMENT_3D ( 'NONE', #112, #64, #62 ) ;
#110 = PERSON_AND_ORGANIZATION_ROLE ( 'design_supplier' ) ;
#111 = CC_DESIGN_PERSON_AND_ORGANIZATION_ASSIGNMENT ( #96, #122, ( #175 ) ) ;
#112 = CARTESIAN_POINT ( 'NONE',  ( 0.0000000000000000000, 0.0000000000000000000, 10.00000000000000000 ) ) ;
#113 = APPROVAL_PERSON_ORGANIZATION ( #8, #54, #4 ) ;
#114 = DIRECTION ( 'NONE',  ( 0.0000000000000000000, 0.0000000000000000000, 1.000000000000000000 ) ) ;
#115 = APPLICATION_CONTEXT ( 'configuration controlled 3d designs of mechanical parts and assemblies' ) ;
#116 = APPROVAL_ROLE ( '' ) ;
#117 = VECTOR ( 'NONE', #46, 1000.000000000000000 ) ;
#118 = CC_DESIGN_PERSON_AND_ORGANIZATION_ASSIGNMENT ( #18, #79, ( #38 ) ) ;
#119 = APPROVAL_PERSON_ORGANIZATION ( #141, #29, #116 ) ;
#120 = CIRCLE ( 'NONE', #109, 149.9999999999999700 ) ;
#121 = CARTESIAN_POINT ( 'NONE',  ( 149.9999999999999700, 1.836970198721029400E-014, 10.00000000000000000 ) ) ;
#122 = PERSON_AND_ORGANIZATION_ROLE ( 'classification_officer' ) ;
#123 = PERSON_AND_ORGANIZATION ( #52, #106 ) ;
#124 = ORIENTED_EDGE ( 'NONE', *, *, #107, .T. ) ;
#125 = CARTESIAN_POINT ( 'NONE',  ( 0.0000000000000000000, 0.0000000000000000000, 10.00000000000000000 ) ) ;
#126 =( NAMED_UNIT ( * ) SI_UNIT ( $, .STERADIAN. ) SOLID_ANGLE_UNIT ( ) );
#127 = CC_DESIGN_APPROVAL ( #29, ( #175 ) ) ;
#128 = CARTESIAN_POINT ( 'NONE',  ( -149.9999999999999700, 0.0000000000000000000, 10.00000000000000000 ) ) ;
#129 = ADVANCED_FACE ( 'NONE', ( #44 ), #150, .T. ) ;
#130 = DIRECTION ( 'NONE',  ( 0.0000000000000000000, 0.0000000000000000000, 1.000000000000000000 ) ) ;
#131 = APPROVAL_DATE_TIME ( #41, #83 ) ;
#132 = AXIS2_PLACEMENT_3D ( 'NONE', #49, #114, #155 ) ;
#133 = EDGE_LOOP ( 'NONE', ( #80, #27, #169, #146 ) ) ;
#134 = FACE_OUTER_BOUND ( 'NONE', #12, .T. ) ;
#135 = VERTEX_POINT ( 'NONE', #63 ) ;
#136 = EDGE_CURVE ( 'NONE', #153, #151, #26, .T. ) ;
#137 = LOCAL_TIME ( 9, 33, 29.00000000000000000, #73 ) ;
#138 = MANIFOLD_SOLID_BREP ( 'Boss.-Extru.1', #85 ) ;
#139 = APPROVAL_PERSON_ORGANIZATION ( #28, #83, #81 ) ;
#140 = CIRCLE ( 'NONE', #10, 149.9999999999999700 ) ;
#141 = PERSON_AND_ORGANIZATION ( #52, #106 ) ;
#142 = DATE_TIME_ROLE ( 'classification_date' ) ;
#143 = PRODUCT_DEFINITION_SHAPE ( 'NONE', 'NONE',  #42 ) ;
#144 = DIRECTION ( 'NONE',  ( 1.000000000000000000, 0.0000000000000000000, 0.0000000000000000000 ) ) ;
#145 = CIRCLE ( 'NONE', #68, 149.9999999999999700 ) ;
#146 = ORIENTED_EDGE ( 'NONE', *, *, #147, .T. ) ;
#147 = EDGE_CURVE ( 'NONE', #151, #70, #56, .T. ) ;
#148 = CALENDAR_DATE ( 2018, 10, 4 ) ;
#149 = AXIS2_PLACEMENT_3D ( 'NONE', #77, #90, #154 ) ;
#150 = CYLINDRICAL_SURFACE ( 'NONE', #173, 149.9999999999999700 ) ;
#151 = VERTEX_POINT ( 'NONE', #170 ) ;
#152 = EDGE_CURVE ( 'NONE', #135, #153, #140, .T. ) ;
#153 = VERTEX_POINT ( 'NONE', #128 ) ;
#154 = DIRECTION ( 'NONE',  ( 1.000000000000000000, 0.0000000000000000000, 0.0000000000000000000 ) ) ;
#155 = DIRECTION ( 'NONE',  ( 1.000000000000000000, 0.0000000000000000000, 0.0000000000000000000 ) ) ;
#156 = CALENDAR_DATE ( 2018, 10, 4 ) ;
#157 = CARTESIAN_POINT ( 'NONE',  ( 0.0000000000000000000, 0.0000000000000000000, 10.00000000000000000 ) ) ;
#158 = AXIS2_PLACEMENT_3D ( 'NONE', #157, #53, #101 ) ;
#159 = APPROVAL_STATUS ( 'not_yet_approved' ) ;
#160 = LOCAL_TIME ( 9, 33, 29.00000000000000000, #86 ) ;
#161 = VECTOR ( 'NONE', #84, 1000.000000000000000 ) ;
#162 = ORIENTED_EDGE ( 'NONE', *, *, #136, .F. ) ;
#163 = ORIENTED_EDGE ( 'NONE', *, *, #7, .T. ) ;
#164 = UNCERTAINTY_MEASURE_WITH_UNIT (LENGTH_MEASURE( 1.000000000000000100E-005 ), #168, 'distance_accuracy_value', 'NONE');
#165 = DATE_AND_TIME ( #69, #137 ) ;
#166 = ORIENTED_EDGE ( 'NONE', *, *, #152, .T. ) ;
#167 = MECHANICAL_CONTEXT ( 'NONE', #39, 'mechanical' ) ;
#168 =( LENGTH_UNIT ( ) NAMED_UNIT ( * ) SI_UNIT ( .MILLI., .METRE. ) );
#169 = ORIENTED_EDGE ( 'NONE', *, *, #136, .T. ) ;
#170 = CARTESIAN_POINT ( 'NONE',  ( -149.9999999999999700, 0.0000000000000000000, 0.0000000000000000000 ) ) ;
#171 = ADVANCED_FACE ( 'NONE', ( #66 ), #16, .T. ) ;
#172 = DESIGN_CONTEXT ( 'detailed design', #115, 'design' ) ;
#173 = AXIS2_PLACEMENT_3D ( 'NONE', #125, #37, #6 ) ;
#174 = EDGE_CURVE ( 'NONE', #153, #135, #120, .T. ) ;
#175 = SECURITY_CLASSIFICATION ( '', '', #15 ) ;
ENDSEC;
END-ISO-10303-21;
