ISO-10303-21;
HEADER;
FILE_DESCRIPTION (( 'STEP AP203' ),
    '1' );
FILE_NAME ('BrasHaut_Micro_Un_sldprt.STEP',
    '2018-04-10T07:30:58',
    ( '' ),
    ( '' ),
    'SwSTEP 2.0',
    'SolidWorks 2017',
    '' );
FILE_SCHEMA (( 'CONFIG_CONTROL_DESIGN' ));
ENDSEC;

DATA;
#1 = CC_DESIGN_APPROVAL ( #44, ( #159 ) ) ;
#2 = ADVANCED_FACE ( 'NONE', ( #110 ), #56, .T. ) ;
#3 = ORGANIZATION ( 'UNSPECIFIED', 'UNSPECIFIED', '' ) ;
#4 = CIRCLE ( 'NONE', #40, 17.00000000000000000 ) ;
#5 = EDGE_LOOP ( 'NONE', ( #157, #154 ) ) ;
#6 = PERSON_AND_ORGANIZATION ( #37, #3 ) ;
#7 = SPHERICAL_SURFACE ( 'NONE', #130, 20.50000000000000000 ) ;
#8 = EDGE_CURVE ( 'NONE', #79, #62, #41, .T. ) ;
#9 = CC_DESIGN_DATE_AND_TIME_ASSIGNMENT ( #42, #20, ( #105 ) ) ;
#10 = ORIENTED_EDGE ( 'NONE', *, *, #92, .F. ) ;
#11 = DIRECTION ( 'NONE',  ( -0.0000000000000000000, -0.0000000000000000000, -1.000000000000000000 ) ) ;
#12 = CARTESIAN_POINT ( 'NONE',  ( 0.0000000000000000000, 0.0000000000000000000, 11.45643923738960100 ) ) ;
#13 = PERSON_AND_ORGANIZATION ( #37, #3 ) ;
#14 = EDGE_LOOP ( 'NONE', ( #94, #96, #170, #144 ) ) ;
#15 = CARTESIAN_POINT ( 'NONE',  ( 0.0000000000000000000, 17.00000000000000000, 11.45643923738960100 ) ) ;
#16 = CC_DESIGN_PERSON_AND_ORGANIZATION_ASSIGNMENT ( #6, #201, ( #105 ) ) ;
#17 = PERSON_AND_ORGANIZATION_ROLE ( 'creator' ) ;
#18 = MECHANICAL_CONTEXT ( 'NONE', #89, 'mechanical' ) ;
#19 = CIRCLE ( 'NONE', #183, 17.00000000000000000 ) ;
#20 = DATE_TIME_ROLE ( 'classification_date' ) ;
#21 = APPROVAL_DATE_TIME ( #166, #208 ) ;
#22 = ORIENTED_EDGE ( 'NONE', *, *, #124, .T. ) ;
#23 = CC_DESIGN_PERSON_AND_ORGANIZATION_ASSIGNMENT ( #69, #179, ( #128 ) ) ;
#24 = APPROVAL_PERSON_ORGANIZATION ( #13, #44, #83 ) ;
#25 = CC_DESIGN_PERSON_AND_ORGANIZATION_ASSIGNMENT ( #137, #182, ( #159 ) ) ;
#26 = VERTEX_POINT ( 'NONE', #103 ) ;
#27 = DIRECTION ( 'NONE',  ( 1.000000000000000000, 0.0000000000000000000, 0.0000000000000000000 ) ) ;
#28 = APPROVAL_PERSON_ORGANIZATION ( #93, #165, #135 ) ;
#29 = CARTESIAN_POINT ( 'NONE',  ( -17.00000000000000000, 0.0000000000000000000, 130.0000000000000000 ) ) ;
#30 = FACE_OUTER_BOUND ( 'NONE', #14, .T. ) ;
#31 = DIRECTION ( 'NONE',  ( -1.000000000000000000, 0.0000000000000000000, 0.0000000000000000000 ) ) ;
#32 = DIRECTION ( 'NONE',  ( -0.0000000000000000000, -0.0000000000000000000, -1.000000000000000000 ) ) ;
#33 = CALENDAR_DATE ( 2018, 10, 4 ) ;
#34 = LINE ( 'NONE', #195, #70 ) ;
#35 =( LENGTH_UNIT ( ) NAMED_UNIT ( * ) SI_UNIT ( .MILLI., .METRE. ) );
#36 = ADVANCED_FACE ( 'NONE', ( #60 ), #158, .T. ) ;
#37 = PERSON ( 'UNSPECIFIED', 'UNSPECIFIED', 'UNSPECIFIED', ('UNSPECIFIED'), ('UNSPECIFIED'), ('UNSPECIFIED') ) ;
#38 = CC_DESIGN_PERSON_AND_ORGANIZATION_ASSIGNMENT ( #141, #181, ( #203 ) ) ;
#39 = CARTESIAN_POINT ( 'NONE',  ( 0.0000000000000000000, 0.0000000000000000000, 130.0000000000000000 ) ) ;
#40 = AXIS2_PLACEMENT_3D ( 'NONE', #81, #32, #132 ) ;
#41 = CIRCLE ( 'NONE', #172, 17.00000000000000000 ) ;
#42 = DATE_AND_TIME ( #134, #126 ) ;
#43 = ORIENTED_EDGE ( 'NONE', *, *, #85, .F. ) ;
#44 = APPROVAL ( #55, 'UNSPECIFIED' ) ;
#45 = FACE_OUTER_BOUND ( 'NONE', #5, .T. ) ;
#46 = PRODUCT_DEFINITION_SHAPE ( 'NONE', 'NONE',  #128 ) ;
#47 = ORIENTED_EDGE ( 'NONE', *, *, #78, .F. ) ;
#48 = AXIS2_PLACEMENT_3D ( 'NONE', #196, #175, #68 ) ;
#49 = DIRECTION ( 'NONE',  ( -0.0000000000000000000, -0.0000000000000000000, -1.000000000000000000 ) ) ;
#50 = DIRECTION ( 'NONE',  ( 1.000000000000000000, 0.0000000000000000000, 0.0000000000000000000 ) ) ;
#51 = AXIS2_PLACEMENT_3D ( 'NONE', #139, #136, #54 ) ;
#52 = DIRECTION ( 'NONE',  ( -0.0000000000000000000, -0.0000000000000000000, -1.000000000000000000 ) ) ;
#53 = APPLICATION_PROTOCOL_DEFINITION ( 'international standard', 'config_control_design', 1994, #89 ) ;
#54 = DIRECTION ( 'NONE',  ( -1.224646799147353500E-016, -1.000000000000000000, 0.0000000000000000000 ) ) ;
#55 = APPROVAL_STATUS ( 'not_yet_approved' ) ;
#56 = SPHERICAL_SURFACE ( 'NONE', #160, 20.50000000000000000 ) ;
#57 = DESIGN_CONTEXT ( 'detailed design', #125, 'design' ) ;
#58 = CC_DESIGN_DATE_AND_TIME_ASSIGNMENT ( #171, #120, ( #128 ) ) ;
#59 = EDGE_CURVE ( 'NONE', #62, #127, #19, .T. ) ;
#60 = FACE_OUTER_BOUND ( 'NONE', #186, .T. ) ;
#61 = COORDINATED_UNIVERSAL_TIME_OFFSET ( 1, 0, .AHEAD. ) ;
#62 = VERTEX_POINT ( 'NONE', #15 ) ;
#63 = DIRECTION ( 'NONE',  ( -0.0000000000000000000, -0.0000000000000000000, -1.000000000000000000 ) ) ;
#64 = CALENDAR_DATE ( 2018, 10, 4 ) ;
#65 = DIRECTION ( 'NONE',  ( -1.000000000000000000, 0.0000000000000000000, 0.0000000000000000000 ) ) ;
#66 = CC_DESIGN_SECURITY_CLASSIFICATION ( #105, ( #159 ) ) ;
#67 = CARTESIAN_POINT ( 'NONE',  ( 0.0000000000000000000, 0.0000000000000000000, 0.0000000000000000000 ) ) ;
#68 = DIRECTION ( 'NONE',  ( -1.000000000000000000, 0.0000000000000000000, 0.0000000000000000000 ) ) ;
#69 = PERSON_AND_ORGANIZATION ( #37, #3 ) ;
#70 = VECTOR ( 'NONE', #117, 1000.000000000000000 ) ;
#71 = EDGE_LOOP ( 'NONE', ( #43, #22, #82, #173, #10 ) ) ;
#72 = CARTESIAN_POINT ( 'NONE',  ( 0.0000000000000000000, 0.0000000000000000000, 130.0000000000000000 ) ) ;
#73 = CARTESIAN_POINT ( 'NONE',  ( -17.00000000000000000, 0.0000000000000000000, 130.0000000000000000 ) ) ;
#74 = LOCAL_TIME ( 9, 30, 58.00000000000000000, #156 ) ;
#75 = DIRECTION ( 'NONE',  ( 0.0000000000000000000, 0.0000000000000000000, 1.000000000000000000 ) ) ;
#76 = ADVANCED_FACE ( 'NONE', ( #188 ), #77, .T. ) ;
#77 = CYLINDRICAL_SURFACE ( 'NONE', #210, 17.00000000000000000 ) ;
#78 = EDGE_CURVE ( 'NONE', #127, #147, #4, .T. ) ;
#79 = VERTEX_POINT ( 'NONE', #80 ) ;
#80 = CARTESIAN_POINT ( 'NONE',  ( -17.00000000000000000, 0.0000000000000000000, 11.45643923738960100 ) ) ;
#81 = CARTESIAN_POINT ( 'NONE',  ( 0.0000000000000000000, 0.0000000000000000000, 11.45643923738960100 ) ) ;
#82 = ORIENTED_EDGE ( 'NONE', *, *, #59, .F. ) ;
#83 = APPROVAL_ROLE ( '' ) ;
#84 = DIRECTION ( 'NONE',  ( 0.0000000000000000000, 0.0000000000000000000, 1.000000000000000000 ) ) ;
#85 = EDGE_CURVE ( 'NONE', #26, #207, #174, .T. ) ;
#86 = DIRECTION ( 'NONE',  ( -1.000000000000000000, 0.0000000000000000000, 0.0000000000000000000 ) ) ;
#87 = VECTOR ( 'NONE', #63, 1000.000000000000000 ) ;
#88 = CARTESIAN_POINT ( 'NONE',  ( 0.0000000000000000000, 0.0000000000000000000, 0.0000000000000000000 ) ) ;
#89 = APPLICATION_CONTEXT ( 'configuration controlled 3d designs of mechanical parts and assemblies' ) ;
#90 = APPROVAL_PERSON_ORGANIZATION ( #116, #208, #184 ) ;
#91 = EDGE_LOOP ( 'NONE', ( #212, #190, #121, #202 ) ) ;
#92 = EDGE_CURVE ( 'NONE', #207, #79, #97, .T. ) ;
#93 = PERSON_AND_ORGANIZATION ( #37, #3 ) ;
#94 = ORIENTED_EDGE ( 'NONE', *, *, #111, .F. ) ;
#95 = AXIS2_PLACEMENT_3D ( 'NONE', #67, #50, #177 ) ;
#96 = ORIENTED_EDGE ( 'NONE', *, *, #143, .T. ) ;
#97 = LINE ( 'NONE', #29, #87 ) ;
#98 = EDGE_CURVE ( 'NONE', #147, #79, #221, .T. ) ;
#99 = VERTEX_POINT ( 'NONE', #101 ) ;
#100 = DIRECTION ( 'NONE',  ( 0.0000000000000000000, 1.000000000000000000, 0.0000000000000000000 ) ) ;
#101 = CARTESIAN_POINT ( 'NONE',  ( 0.0000000000000000000, 1.255262969126037200E-015, -20.50000000000000000 ) ) ;
#102 = CARTESIAN_POINT ( 'NONE',  ( 0.0000000000000000000, 0.0000000000000000000, 11.45643923738960100 ) ) ;
#103 = CARTESIAN_POINT ( 'NONE',  ( 17.00000000000000000, 2.081899558550500300E-015, 130.0000000000000000 ) ) ;
#104 = CARTESIAN_POINT ( 'NONE',  ( 17.00000000000000000, 2.081899558550500300E-015, 11.45643923738960100 ) ) ;
#105 = SECURITY_CLASSIFICATION ( '', '', #123 ) ;
#106 = CARTESIAN_POINT ( 'NONE',  ( 0.0000000000000000000, 0.0000000000000000000, 0.0000000000000000000 ) ) ;
#107 = CALENDAR_DATE ( 2018, 10, 4 ) ;
#108 = AXIS2_PLACEMENT_3D ( 'NONE', #39, #205, #122 ) ;
#109 = CC_DESIGN_APPROVAL ( #165, ( #105 ) ) ;
#110 = FACE_OUTER_BOUND ( 'NONE', #91, .T. ) ;
#111 = EDGE_CURVE ( 'NONE', #99, #62, #211, .T. ) ;
#112 = ORIENTED_EDGE ( 'NONE', *, *, #124, .F. ) ;
#113 = LOCAL_TIME ( 9, 30, 58.00000000000000000, #153 ) ;
#114 = ORIENTED_EDGE ( 'NONE', *, *, #150, .F. ) ;
#115 = DIRECTION ( 'NONE',  ( -1.000000000000000000, 0.0000000000000000000, 0.0000000000000000000 ) ) ;
#116 = PERSON_AND_ORGANIZATION ( #37, #3 ) ;
#117 = DIRECTION ( 'NONE',  ( -0.0000000000000000000, -0.0000000000000000000, -1.000000000000000000 ) ) ;
#118 = ADVANCED_BREP_SHAPE_REPRESENTATION ( 'BrasHaut_Micro_Un_sldprt', ( #187, #140 ), #142 ) ;
#119 = CARTESIAN_POINT ( 'NONE',  ( 0.0000000000000000000, 0.0000000000000000000, 130.0000000000000000 ) ) ;
#120 = DATE_TIME_ROLE ( 'creation_date' ) ;
#121 = ORIENTED_EDGE ( 'NONE', *, *, #59, .T. ) ;
#122 = DIRECTION ( 'NONE',  ( 1.000000000000000000, 0.0000000000000000000, 0.0000000000000000000 ) ) ;
#123 = SECURITY_CLASSIFICATION_LEVEL ( 'unclassified' ) ;
#124 = EDGE_CURVE ( 'NONE', #26, #127, #34, .T. ) ;
#125 = APPLICATION_CONTEXT ( 'configuration controlled 3d designs of mechanical parts and assemblies' ) ;
#126 = LOCAL_TIME ( 9, 30, 58.00000000000000000, #209 ) ;
#127 = VERTEX_POINT ( 'NONE', #104 ) ;
#128 = PRODUCT_DEFINITION ( 'UNKNOWN', '', #159, #57 ) ;
#129 = LOCAL_TIME ( 9, 30, 58.00000000000000000, #185 ) ;
#130 = AXIS2_PLACEMENT_3D ( 'NONE', #106, #86, #216 ) ;
#131 = DATE_AND_TIME ( #199, #129 ) ;
#132 = DIRECTION ( 'NONE',  ( -1.000000000000000000, 0.0000000000000000000, 0.0000000000000000000 ) ) ;
#133 = ORIENTED_EDGE ( 'NONE', *, *, #92, .T. ) ;
#134 = CALENDAR_DATE ( 2018, 10, 4 ) ;
#135 = APPROVAL_ROLE ( '' ) ;
#136 = DIRECTION ( 'NONE',  ( -1.000000000000000000, 1.224646799147353200E-016, 0.0000000000000000000 ) ) ;
#137 = PERSON_AND_ORGANIZATION ( #37, #3 ) ;
#138 = PRODUCT_RELATED_PRODUCT_CATEGORY ( 'detail', '', ( #203 ) ) ;
#139 = CARTESIAN_POINT ( 'NONE',  ( 0.0000000000000000000, 0.0000000000000000000, 0.0000000000000000000 ) ) ;
#140 = AXIS2_PLACEMENT_3D ( 'NONE', #88, #84, #219 ) ;
#141 = PERSON_AND_ORGANIZATION ( #37, #3 ) ;
#142 =( GEOMETRIC_REPRESENTATION_CONTEXT ( 3 ) GLOBAL_UNCERTAINTY_ASSIGNED_CONTEXT ( ( #213 ) ) GLOBAL_UNIT_ASSIGNED_CONTEXT ( ( #35, #152, #204 ) ) REPRESENTATION_CONTEXT ( 'NONE', 'WORKASPACE' ) );
#143 = EDGE_CURVE ( 'NONE', #99, #147, #220, .T. ) ;
#144 = ORIENTED_EDGE ( 'NONE', *, *, #8, .T. ) ;
#145 = CARTESIAN_POINT ( 'NONE',  ( -2.081899558550500300E-015, -17.00000000000000000, 11.45643923738960100 ) ) ;
#146 = LOCAL_TIME ( 9, 30, 58.00000000000000000, #61 ) ;
#147 = VERTEX_POINT ( 'NONE', #145 ) ;
#148 = DIRECTION ( 'NONE',  ( -0.0000000000000000000, -0.0000000000000000000, -1.000000000000000000 ) ) ;
#149 = AXIS2_PLACEMENT_3D ( 'NONE', #176, #198, #27 ) ;
#150 = EDGE_CURVE ( 'NONE', #207, #26, #178, .T. ) ;
#151 = PLANE ( 'NONE',  #215 ) ;
#152 =( NAMED_UNIT ( * ) PLANE_ANGLE_UNIT ( ) SI_UNIT ( $, .RADIAN. ) );
#153 = COORDINATED_UNIVERSAL_TIME_OFFSET ( 1, 0, .AHEAD. ) ;
#154 = ORIENTED_EDGE ( 'NONE', *, *, #85, .T. ) ;
#155 = CC_DESIGN_APPROVAL ( #208, ( #128 ) ) ;
#156 = COORDINATED_UNIVERSAL_TIME_OFFSET ( 1, 0, .AHEAD. ) ;
#157 = ORIENTED_EDGE ( 'NONE', *, *, #150, .T. ) ;
#158 = CYLINDRICAL_SURFACE ( 'NONE', #48, 17.00000000000000000 ) ;
#159 = PRODUCT_DEFINITION_FORMATION_WITH_SPECIFIED_SOURCE ( 'ANY', '', #203, .NOT_KNOWN. ) ;
#160 = AXIS2_PLACEMENT_3D ( 'NONE', #163, #31, #100 ) ;
#161 = DIRECTION ( 'NONE',  ( -1.000000000000000000, 0.0000000000000000000, 0.0000000000000000000 ) ) ;
#162 = CLOSED_SHELL ( 'NONE', ( #168, #76, #36, #180, #2 ) ) ;
#163 = CARTESIAN_POINT ( 'NONE',  ( 0.0000000000000000000, 0.0000000000000000000, 0.0000000000000000000 ) ) ;
#164 = APPROVAL_DATE_TIME ( #131, #44 ) ;
#165 = APPROVAL ( #169, 'UNSPECIFIED' ) ;
#166 = DATE_AND_TIME ( #64, #113 ) ;
#167 = APPROVAL_STATUS ( 'not_yet_approved' ) ;
#168 = ADVANCED_FACE ( 'NONE', ( #30 ), #7, .T. ) ;
#169 = APPROVAL_STATUS ( 'not_yet_approved' ) ;
#170 = ORIENTED_EDGE ( 'NONE', *, *, #98, .T. ) ;
#171 = DATE_AND_TIME ( #107, #146 ) ;
#172 = AXIS2_PLACEMENT_3D ( 'NONE', #214, #148, #65 ) ;
#173 = ORIENTED_EDGE ( 'NONE', *, *, #8, .F. ) ;
#174 = CIRCLE ( 'NONE', #149, 17.00000000000000000 ) ;
#175 = DIRECTION ( 'NONE',  ( -0.0000000000000000000, -0.0000000000000000000, -1.000000000000000000 ) ) ;
#176 = CARTESIAN_POINT ( 'NONE',  ( 0.0000000000000000000, 0.0000000000000000000, 130.0000000000000000 ) ) ;
#177 = DIRECTION ( 'NONE',  ( 0.0000000000000000000, 0.0000000000000000000, -1.000000000000000000 ) ) ;
#178 = CIRCLE ( 'NONE', #108, 17.00000000000000000 ) ;
#179 = PERSON_AND_ORGANIZATION_ROLE ( 'creator' ) ;
#180 = ADVANCED_FACE ( 'NONE', ( #45 ), #151, .T. ) ;
#181 = PERSON_AND_ORGANIZATION_ROLE ( 'design_owner' ) ;
#182 = PERSON_AND_ORGANIZATION_ROLE ( 'design_supplier' ) ;
#183 = AXIS2_PLACEMENT_3D ( 'NONE', #102, #49, #115 ) ;
#184 = APPROVAL_ROLE ( '' ) ;
#185 = COORDINATED_UNIVERSAL_TIME_OFFSET ( 1, 0, .AHEAD. ) ;
#186 = EDGE_LOOP ( 'NONE', ( #112, #114, #133, #191, #47 ) ) ;
#187 = MANIFOLD_SOLID_BREP ( 'Révolution1', #162 ) ;
#188 = FACE_OUTER_BOUND ( 'NONE', #71, .T. ) ;
#189 = PERSON_AND_ORGANIZATION ( #37, #3 ) ;
#190 = ORIENTED_EDGE ( 'NONE', *, *, #111, .T. ) ;
#191 = ORIENTED_EDGE ( 'NONE', *, *, #98, .F. ) ;
#192 = CC_DESIGN_PERSON_AND_ORGANIZATION_ASSIGNMENT ( #189, #17, ( #159 ) ) ;
#193 = AXIS2_PLACEMENT_3D ( 'NONE', #12, #52, #197 ) ;
#194 = DATE_AND_TIME ( #33, #74 ) ;
#195 = CARTESIAN_POINT ( 'NONE',  ( 17.00000000000000000, 2.081899558550500300E-015, 130.0000000000000000 ) ) ;
#196 = CARTESIAN_POINT ( 'NONE',  ( 0.0000000000000000000, 0.0000000000000000000, 130.0000000000000000 ) ) ;
#197 = DIRECTION ( 'NONE',  ( -1.000000000000000000, 0.0000000000000000000, 0.0000000000000000000 ) ) ;
#198 = DIRECTION ( 'NONE',  ( 0.0000000000000000000, 0.0000000000000000000, 1.000000000000000000 ) ) ;
#199 = CALENDAR_DATE ( 2018, 10, 4 ) ;
#200 = SHAPE_DEFINITION_REPRESENTATION ( #46, #118 ) ;
#201 = PERSON_AND_ORGANIZATION_ROLE ( 'classification_officer' ) ;
#202 = ORIENTED_EDGE ( 'NONE', *, *, #78, .T. ) ;
#203 = PRODUCT ( 'BrasHaut_Micro_Un_sldprt', 'BrasHaut_Micro_Un_sldprt', '', ( #18 ) ) ;
#204 =( NAMED_UNIT ( * ) SI_UNIT ( $, .STERADIAN. ) SOLID_ANGLE_UNIT ( ) );
#205 = DIRECTION ( 'NONE',  ( 0.0000000000000000000, 0.0000000000000000000, 1.000000000000000000 ) ) ;
#206 = DIRECTION ( 'NONE',  ( 1.000000000000000000, 0.0000000000000000000, -0.0000000000000000000 ) ) ;
#207 = VERTEX_POINT ( 'NONE', #73 ) ;
#208 = APPROVAL ( #167, 'UNSPECIFIED' ) ;
#209 = COORDINATED_UNIVERSAL_TIME_OFFSET ( 1, 0, .AHEAD. ) ;
#210 = AXIS2_PLACEMENT_3D ( 'NONE', #119, #11, #161 ) ;
#211 = CIRCLE ( 'NONE', #95, 20.50000000000000000 ) ;
#212 = ORIENTED_EDGE ( 'NONE', *, *, #143, .F. ) ;
#213 = UNCERTAINTY_MEASURE_WITH_UNIT (LENGTH_MEASURE( 1.000000000000000100E-005 ), #35, 'distance_accuracy_value', 'NONE');
#214 = CARTESIAN_POINT ( 'NONE',  ( 0.0000000000000000000, 0.0000000000000000000, 11.45643923738960100 ) ) ;
#215 = AXIS2_PLACEMENT_3D ( 'NONE', #72, #75, #206 ) ;
#216 = DIRECTION ( 'NONE',  ( 0.0000000000000000000, 1.000000000000000000, 0.0000000000000000000 ) ) ;
#217 = APPLICATION_PROTOCOL_DEFINITION ( 'international standard', 'config_control_design', 1994, #125 ) ;
#218 = APPROVAL_DATE_TIME ( #194, #165 ) ;
#219 = DIRECTION ( 'NONE',  ( 1.000000000000000000, 0.0000000000000000000, 0.0000000000000000000 ) ) ;
#220 = CIRCLE ( 'NONE', #51, 20.50000000000000000 ) ;
#221 = CIRCLE ( 'NONE', #193, 17.00000000000000000 ) ;
ENDSEC;
END-ISO-10303-21;
