ISO-10303-21;
HEADER;
FILE_DESCRIPTION (( 'STEP AP203' ),
    '1' );
FILE_NAME ('Base_Micro_Un_sldprt.STEP',
    '2018-04-10T07:30:24',
    ( '' ),
    ( '' ),
    'SwSTEP 2.0',
    'SolidWorks 2017',
    '' );
FILE_SCHEMA (( 'CONFIG_CONTROL_DESIGN' ));
ENDSEC;

DATA;
#1 = SHAPE_DEFINITION_REPRESENTATION ( #178, #248 ) ;
#2 = ADVANCED_FACE ( 'NONE', ( #101 ), #32, .F. ) ;
#3 = CC_DESIGN_APPROVAL ( #158, ( #57 ) ) ;
#4 = DIRECTION ( 'NONE',  ( 0.0000000000000000000, 0.0000000000000000000, 1.000000000000000000 ) ) ;
#5 = CIRCLE ( 'NONE', #133, 207.5000000000000300 ) ;
#6 = CC_DESIGN_PERSON_AND_ORGANIZATION_ASSIGNMENT ( #172, #203, ( #37 ) ) ;
#7 = DIRECTION ( 'NONE',  ( 0.0000000000000000000, 0.0000000000000000000, 1.000000000000000000 ) ) ;
#8 = APPROVAL_ROLE ( '' ) ;
#9 = EDGE_LOOP ( 'NONE', ( #211, #223 ) ) ;
#10 = PRODUCT_RELATED_PRODUCT_CATEGORY ( 'detail', '', ( #13 ) ) ;
#11 = ORIENTED_EDGE ( 'NONE', *, *, #80, .T. ) ;
#12 = ORIENTED_EDGE ( 'NONE', *, *, #136, .F. ) ;
#13 = PRODUCT ( 'Base_Micro_Un_sldprt', 'Base_Micro_Un_sldprt', '', ( #202 ) ) ;
#14 = CC_DESIGN_PERSON_AND_ORGANIZATION_ASSIGNMENT ( #236, #242, ( #57 ) ) ;
#15 = VERTEX_POINT ( 'NONE', #21 ) ;
#16 = ORIENTED_EDGE ( 'NONE', *, *, #136, .T. ) ;
#17 = DATE_AND_TIME ( #70, #182 ) ;
#18 = CIRCLE ( 'NONE', #110, 110.0000000000000000 ) ;
#19 = CARTESIAN_POINT ( 'NONE',  ( 110.0000000000000000, 1.347111479062088400E-014, 0.0000000000000000000 ) ) ;
#20 = EDGE_CURVE ( 'NONE', #73, #98, #214, .T. ) ;
#21 = CARTESIAN_POINT ( 'NONE',  ( 207.5000000000000300, 2.541142108230757500E-014, 26.00000000000000000 ) ) ;
#22 = APPROVAL_DATE_TIME ( #78, #29 ) ;
#23 = DIRECTION ( 'NONE',  ( -1.000000000000000000, 0.0000000000000000000, 0.0000000000000000000 ) ) ;
#24 = EDGE_LOOP ( 'NONE', ( #219, #127 ) ) ;
#25 = DIRECTION ( 'NONE',  ( -0.0000000000000000000, -0.0000000000000000000, -1.000000000000000000 ) ) ;
#26 = DATE_AND_TIME ( #207, #225 ) ;
#27 = CIRCLE ( 'NONE', #104, 110.0000000000000000 ) ;
#28 = APPLICATION_CONTEXT ( 'configuration controlled 3d designs of mechanical parts and assemblies' ) ;
#29 = APPROVAL ( #165, 'UNSPECIFIED' ) ;
#30 = ORIENTED_EDGE ( 'NONE', *, *, #151, .T. ) ;
#31 = PERSON_AND_ORGANIZATION ( #35, #145 ) ;
#32 = CYLINDRICAL_SURFACE ( 'NONE', #95, 110.0000000000000000 ) ;
#33 = DESIGN_CONTEXT ( 'detailed design', #130, 'design' ) ;
#34 = SECURITY_CLASSIFICATION ( '', '', #187 ) ;
#35 = PERSON ( 'UNSPECIFIED', 'UNSPECIFIED', 'UNSPECIFIED', ('UNSPECIFIED'), ('UNSPECIFIED'), ('UNSPECIFIED') ) ;
#36 = VERTEX_POINT ( 'NONE', #232 ) ;
#37 = PRODUCT_DEFINITION_FORMATION_WITH_SPECIFIED_SOURCE ( 'ANY', '', #13, .NOT_KNOWN. ) ;
#38 = APPROVAL_PERSON_ORGANIZATION ( #100, #158, #8 ) ;
#39 = VERTEX_POINT ( 'NONE', #19 ) ;
#40 = DIRECTION ( 'NONE',  ( 1.000000000000000000, 0.0000000000000000000, -0.0000000000000000000 ) ) ;
#41 = DIRECTION ( 'NONE',  ( 1.000000000000000000, 0.0000000000000000000, -0.0000000000000000000 ) ) ;
#42 = CARTESIAN_POINT ( 'NONE',  ( 0.0000000000000000000, 0.0000000000000000000, 0.0000000000000000000 ) ) ;
#43 = ORIENTED_EDGE ( 'NONE', *, *, #192, .T. ) ;
#44 = CARTESIAN_POINT ( 'NONE',  ( 0.0000000000000000000, 0.0000000000000000000, 26.00000000000000000 ) ) ;
#45 = DIRECTION ( 'NONE',  ( 0.0000000000000000000, 0.0000000000000000000, 1.000000000000000000 ) ) ;
#46 = DIRECTION ( 'NONE',  ( -0.0000000000000000000, -0.0000000000000000000, -1.000000000000000000 ) ) ;
#47 = DIRECTION ( 'NONE',  ( 1.000000000000000000, 0.0000000000000000000, 0.0000000000000000000 ) ) ;
#48 = APPROVAL_ROLE ( '' ) ;
#49 = ADVANCED_FACE ( 'NONE', ( #229, #92 ), #58, .T. ) ;
#50 = ORIENTED_EDGE ( 'NONE', *, *, #245, .F. ) ;
#51 = CC_DESIGN_APPROVAL ( #29, ( #37 ) ) ;
#52 = APPROVAL_DATE_TIME ( #109, #71 ) ;
#53 = ADVANCED_FACE ( 'NONE', ( #210, #113 ), #180, .F. ) ;
#54 = UNCERTAINTY_MEASURE_WITH_UNIT (LENGTH_MEASURE( 1.000000000000000100E-005 ), #220, 'distance_accuracy_value', 'NONE');
#55 = CIRCLE ( 'NONE', #144, 207.5000000000000300 ) ;
#56 = CIRCLE ( 'NONE', #221, 110.0000000000000000 ) ;
#57 = PRODUCT_DEFINITION ( 'UNKNOWN', '', #37, #33 ) ;
#58 = PLANE ( 'NONE',  #97 ) ;
#59 = LOCAL_TIME ( 9, 30, 24.00000000000000000, #66 ) ;
#60 = COORDINATED_UNIVERSAL_TIME_OFFSET ( 1, 0, .AHEAD. ) ;
#61 = APPLICATION_PROTOCOL_DEFINITION ( 'international standard', 'config_control_design', 1994, #28 ) ;
#62 = EDGE_CURVE ( 'NONE', #15, #36, #191, .T. ) ;
#63 = CARTESIAN_POINT ( 'NONE',  ( 0.0000000000000000000, 0.0000000000000000000, 26.00000000000000000 ) ) ;
#64 = DIRECTION ( 'NONE',  ( -1.000000000000000000, 0.0000000000000000000, 0.0000000000000000000 ) ) ;
#65 = EDGE_CURVE ( 'NONE', #36, #98, #184, .T. ) ;
#66 = COORDINATED_UNIVERSAL_TIME_OFFSET ( 1, 0, .AHEAD. ) ;
#67 = CARTESIAN_POINT ( 'NONE',  ( 0.0000000000000000000, 0.0000000000000000000, 26.00000000000000000 ) ) ;
#68 = ORIENTED_EDGE ( 'NONE', *, *, #188, .F. ) ;
#69 = CARTESIAN_POINT ( 'NONE',  ( 0.0000000000000000000, 0.0000000000000000000, 26.00000000000000000 ) ) ;
#70 = CALENDAR_DATE ( 2018, 10, 4 ) ;
#71 = APPROVAL ( #94, 'UNSPECIFIED' ) ;
#72 = ORIENTED_EDGE ( 'NONE', *, *, #179, .F. ) ;
#73 = VERTEX_POINT ( 'NONE', #138 ) ;
#74 = DATE_TIME_ROLE ( 'classification_date' ) ;
#75 = PERSON_AND_ORGANIZATION_ROLE ( 'creator' ) ;
#76 = ADVANCED_FACE ( 'NONE', ( #137 ), #122, .T. ) ;
#77 =( GEOMETRIC_REPRESENTATION_CONTEXT ( 3 ) GLOBAL_UNCERTAINTY_ASSIGNED_CONTEXT ( ( #54 ) ) GLOBAL_UNIT_ASSIGNED_CONTEXT ( ( #220, #239, #123 ) ) REPRESENTATION_CONTEXT ( 'NONE', 'WORKASPACE' ) );
#78 = DATE_AND_TIME ( #189, #186 ) ;
#79 = ORIENTED_EDGE ( 'NONE', *, *, #62, .F. ) ;
#80 = EDGE_CURVE ( 'NONE', #93, #105, #56, .T. ) ;
#81 = CARTESIAN_POINT ( 'NONE',  ( -207.5000000000000300, 0.0000000000000000000, 26.00000000000000000 ) ) ;
#82 = COORDINATED_UNIVERSAL_TIME_OFFSET ( 1, 0, .AHEAD. ) ;
#83 = ORIENTED_EDGE ( 'NONE', *, *, #65, .F. ) ;
#84 = CC_DESIGN_APPROVAL ( #71, ( #34 ) ) ;
#85 = DIRECTION ( 'NONE',  ( 1.000000000000000000, 0.0000000000000000000, 0.0000000000000000000 ) ) ;
#86 = CARTESIAN_POINT ( 'NONE',  ( -110.0000000000000000, 0.0000000000000000000, 26.00000000000000000 ) ) ;
#87 = CYLINDRICAL_SURFACE ( 'NONE', #226, 110.0000000000000000 ) ;
#88 = CARTESIAN_POINT ( 'NONE',  ( 0.0000000000000000000, 0.0000000000000000000, 26.00000000000000000 ) ) ;
#89 = CARTESIAN_POINT ( 'NONE',  ( 0.0000000000000000000, 0.0000000000000000000, 0.0000000000000000000 ) ) ;
#90 = CC_DESIGN_DATE_AND_TIME_ASSIGNMENT ( #26, #128, ( #57 ) ) ;
#91 = PERSON_AND_ORGANIZATION_ROLE ( 'classification_officer' ) ;
#92 = FACE_BOUND ( 'NONE', #9, .T. ) ;
#93 = VERTEX_POINT ( 'NONE', #121 ) ;
#94 = APPROVAL_STATUS ( 'not_yet_approved' ) ;
#95 = AXIS2_PLACEMENT_3D ( 'NONE', #213, #99, #102 ) ;
#96 = ADVANCED_FACE ( 'NONE', ( #181 ), #87, .F. ) ;
#97 = AXIS2_PLACEMENT_3D ( 'NONE', #212, #155, #40 ) ;
#98 = VERTEX_POINT ( 'NONE', #196 ) ;
#99 = DIRECTION ( 'NONE',  ( -0.0000000000000000000, -0.0000000000000000000, -1.000000000000000000 ) ) ;
#100 = PERSON_AND_ORGANIZATION ( #35, #145 ) ;
#101 = FACE_OUTER_BOUND ( 'NONE', #150, .T. ) ;
#102 = DIRECTION ( 'NONE',  ( -1.000000000000000000, 0.0000000000000000000, 0.0000000000000000000 ) ) ;
#103 = CALENDAR_DATE ( 2018, 10, 4 ) ;
#104 = AXIS2_PLACEMENT_3D ( 'NONE', #42, #237, #47 ) ;
#105 = VERTEX_POINT ( 'NONE', #200 ) ;
#106 = ORIENTED_EDGE ( 'NONE', *, *, #20, .T. ) ;
#107 = DIRECTION ( 'NONE',  ( -0.0000000000000000000, -0.0000000000000000000, -1.000000000000000000 ) ) ;
#108 = AXIS2_PLACEMENT_3D ( 'NONE', #115, #194, #41 ) ;
#109 = DATE_AND_TIME ( #209, #59 ) ;
#110 = AXIS2_PLACEMENT_3D ( 'NONE', #89, #199, #234 ) ;
#111 = PERSON_AND_ORGANIZATION ( #35, #145 ) ;
#112 = AXIS2_PLACEMENT_3D ( 'NONE', #215, #154, #23 ) ;
#113 = FACE_BOUND ( 'NONE', #24, .T. ) ;
#114 = CLOSED_SHELL ( 'NONE', ( #2, #244, #49, #53, #76, #96 ) ) ;
#115 = CARTESIAN_POINT ( 'NONE',  ( 0.0000000000000000000, 0.0000000000000000000, 0.0000000000000000000 ) ) ;
#116 = PERSON_AND_ORGANIZATION ( #35, #145 ) ;
#117 = AXIS2_PLACEMENT_3D ( 'NONE', #143, #161, #129 ) ;
#118 = DIRECTION ( 'NONE',  ( -0.0000000000000000000, -0.0000000000000000000, -1.000000000000000000 ) ) ;
#119 = CARTESIAN_POINT ( 'NONE',  ( 110.0000000000000000, 1.347111479062088400E-014, 26.00000000000000000 ) ) ;
#120 = CIRCLE ( 'NONE', #230, 207.5000000000000300 ) ;
#121 = CARTESIAN_POINT ( 'NONE',  ( -110.0000000000000000, 0.0000000000000000000, 26.00000000000000000 ) ) ;
#122 = CYLINDRICAL_SURFACE ( 'NONE', #112, 207.5000000000000300 ) ;
#123 =( NAMED_UNIT ( * ) SI_UNIT ( $, .STERADIAN. ) SOLID_ANGLE_UNIT ( ) );
#124 = CARTESIAN_POINT ( 'NONE',  ( 0.0000000000000000000, 0.0000000000000000000, 0.0000000000000000000 ) ) ;
#125 = EDGE_CURVE ( 'NONE', #173, #39, #18, .T. ) ;
#126 = APPLICATION_PROTOCOL_DEFINITION ( 'international standard', 'config_control_design', 1994, #130 ) ;
#127 = ORIENTED_EDGE ( 'NONE', *, *, #188, .T. ) ;
#128 = DATE_TIME_ROLE ( 'creation_date' ) ;
#129 = DIRECTION ( 'NONE',  ( 1.000000000000000000, 0.0000000000000000000, 0.0000000000000000000 ) ) ;
#130 = APPLICATION_CONTEXT ( 'configuration controlled 3d designs of mechanical parts and assemblies' ) ;
#131 = VECTOR ( 'NONE', #118, 1000.000000000000000 ) ;
#132 = AXIS2_PLACEMENT_3D ( 'NONE', #67, #217, #64 ) ;
#133 = AXIS2_PLACEMENT_3D ( 'NONE', #63, #162, #183 ) ;
#134 = COORDINATED_UNIVERSAL_TIME_OFFSET ( 1, 0, .AHEAD. ) ;
#135 = PERSON_AND_ORGANIZATION ( #35, #145 ) ;
#136 = EDGE_CURVE ( 'NONE', #15, #73, #5, .T. ) ;
#137 = FACE_OUTER_BOUND ( 'NONE', #201, .T. ) ;
#138 = CARTESIAN_POINT ( 'NONE',  ( -207.5000000000000300, 0.0000000000000000000, 26.00000000000000000 ) ) ;
#139 = MANIFOLD_SOLID_BREP ( 'Boss.-Extru.1', #114 ) ;
#140 = CARTESIAN_POINT ( 'NONE',  ( 207.5000000000000300, 2.541142108230757500E-014, 26.00000000000000000 ) ) ;
#141 = APPROVAL_DATE_TIME ( #197, #158 ) ;
#142 = CARTESIAN_POINT ( 'NONE',  ( -110.0000000000000000, 0.0000000000000000000, 0.0000000000000000000 ) ) ;
#143 = CARTESIAN_POINT ( 'NONE',  ( 0.0000000000000000000, 0.0000000000000000000, 0.0000000000000000000 ) ) ;
#144 = AXIS2_PLACEMENT_3D ( 'NONE', #124, #7, #240 ) ;
#145 = ORGANIZATION ( 'UNSPECIFIED', 'UNSPECIFIED', '' ) ;
#146 = DIRECTION ( 'NONE',  ( -1.000000000000000000, 0.0000000000000000000, 0.0000000000000000000 ) ) ;
#147 = CC_DESIGN_PERSON_AND_ORGANIZATION_ASSIGNMENT ( #135, #241, ( #13 ) ) ;
#148 = ORIENTED_EDGE ( 'NONE', *, *, #65, .T. ) ;
#149 = EDGE_LOOP ( 'NONE', ( #246, #43, #153, #68 ) ) ;
#150 = EDGE_LOOP ( 'NONE', ( #11, #30, #167, #193 ) ) ;
#151 = EDGE_CURVE ( 'NONE', #105, #39, #205, .T. ) ;
#152 = LOCAL_TIME ( 9, 30, 24.00000000000000000, #60 ) ;
#153 = ORIENTED_EDGE ( 'NONE', *, *, #163, .T. ) ;
#154 = DIRECTION ( 'NONE',  ( -0.0000000000000000000, -0.0000000000000000000, -1.000000000000000000 ) ) ;
#155 = DIRECTION ( 'NONE',  ( 0.0000000000000000000, 0.0000000000000000000, 1.000000000000000000 ) ) ;
#156 = CARTESIAN_POINT ( 'NONE',  ( 0.0000000000000000000, 0.0000000000000000000, 0.0000000000000000000 ) ) ;
#157 = COORDINATED_UNIVERSAL_TIME_OFFSET ( 1, 0, .AHEAD. ) ;
#158 = APPROVAL ( #168, 'UNSPECIFIED' ) ;
#159 = CARTESIAN_POINT ( 'NONE',  ( 0.0000000000000000000, 0.0000000000000000000, 26.00000000000000000 ) ) ;
#160 = CIRCLE ( 'NONE', #170, 110.0000000000000000 ) ;
#161 = DIRECTION ( 'NONE',  ( 0.0000000000000000000, 0.0000000000000000000, 1.000000000000000000 ) ) ;
#162 = DIRECTION ( 'NONE',  ( 0.0000000000000000000, 0.0000000000000000000, 1.000000000000000000 ) ) ;
#163 = EDGE_CURVE ( 'NONE', #93, #173, #228, .T. ) ;
#164 = APPROVAL_PERSON_ORGANIZATION ( #111, #71, #48 ) ;
#165 = APPROVAL_STATUS ( 'not_yet_approved' ) ;
#166 = VECTOR ( 'NONE', #231, 1000.000000000000000 ) ;
#167 = ORIENTED_EDGE ( 'NONE', *, *, #125, .F. ) ;
#168 = APPROVAL_STATUS ( 'not_yet_approved' ) ;
#169 = VECTOR ( 'NONE', #46, 1000.000000000000000 ) ;
#170 = AXIS2_PLACEMENT_3D ( 'NONE', #88, #4, #218 ) ;
#171 = EDGE_LOOP ( 'NONE', ( #12, #174, #148, #206 ) ) ;
#172 = PERSON_AND_ORGANIZATION ( #35, #145 ) ;
#173 = VERTEX_POINT ( 'NONE', #142 ) ;
#174 = ORIENTED_EDGE ( 'NONE', *, *, #62, .T. ) ;
#175 = CC_DESIGN_PERSON_AND_ORGANIZATION_ASSIGNMENT ( #176, #75, ( #37 ) ) ;
#176 = PERSON_AND_ORGANIZATION ( #35, #145 ) ;
#177 = CYLINDRICAL_SURFACE ( 'NONE', #132, 207.5000000000000300 ) ;
#178 = PRODUCT_DEFINITION_SHAPE ( 'NONE', 'NONE',  #57 ) ;
#179 = EDGE_CURVE ( 'NONE', #98, #36, #55, .T. ) ;
#180 = PLANE ( 'NONE',  #108 ) ;
#181 = FACE_OUTER_BOUND ( 'NONE', #149, .T. ) ;
#182 = LOCAL_TIME ( 9, 30, 24.00000000000000000, #157 ) ;
#183 = DIRECTION ( 'NONE',  ( 1.000000000000000000, 0.0000000000000000000, 0.0000000000000000000 ) ) ;
#184 = CIRCLE ( 'NONE', #208, 207.5000000000000300 ) ;
#185 = DIRECTION ( 'NONE',  ( 1.000000000000000000, 0.0000000000000000000, 0.0000000000000000000 ) ) ;
#186 = LOCAL_TIME ( 9, 30, 24.00000000000000000, #82 ) ;
#187 = SECURITY_CLASSIFICATION_LEVEL ( 'unclassified' ) ;
#188 = EDGE_CURVE ( 'NONE', #39, #173, #27, .T. ) ;
#189 = CALENDAR_DATE ( 2018, 10, 4 ) ;
#190 = FACE_OUTER_BOUND ( 'NONE', #171, .T. ) ;
#191 = LINE ( 'NONE', #140, #238 ) ;
#192 = EDGE_CURVE ( 'NONE', #105, #93, #160, .T. ) ;
#193 = ORIENTED_EDGE ( 'NONE', *, *, #163, .F. ) ;
#194 = DIRECTION ( 'NONE',  ( 0.0000000000000000000, 0.0000000000000000000, 1.000000000000000000 ) ) ;
#195 = DIRECTION ( 'NONE',  ( 0.0000000000000000000, 0.0000000000000000000, 1.000000000000000000 ) ) ;
#196 = CARTESIAN_POINT ( 'NONE',  ( -207.5000000000000300, 0.0000000000000000000, 0.0000000000000000000 ) ) ;
#197 = DATE_AND_TIME ( #103, #152 ) ;
#198 = EDGE_LOOP ( 'NONE', ( #72, #83 ) ) ;
#199 = DIRECTION ( 'NONE',  ( 0.0000000000000000000, 0.0000000000000000000, 1.000000000000000000 ) ) ;
#200 = CARTESIAN_POINT ( 'NONE',  ( 110.0000000000000000, 1.347111479062088400E-014, 26.00000000000000000 ) ) ;
#201 = EDGE_LOOP ( 'NONE', ( #79, #50, #106, #243 ) ) ;
#202 = MECHANICAL_CONTEXT ( 'NONE', #28, 'mechanical' ) ;
#203 = PERSON_AND_ORGANIZATION_ROLE ( 'design_supplier' ) ;
#204 = APPROVAL_ROLE ( '' ) ;
#205 = LINE ( 'NONE', #119, #169 ) ;
#206 = ORIENTED_EDGE ( 'NONE', *, *, #20, .F. ) ;
#207 = CALENDAR_DATE ( 2018, 10, 4 ) ;
#208 = AXIS2_PLACEMENT_3D ( 'NONE', #156, #195, #85 ) ;
#209 = CALENDAR_DATE ( 2018, 10, 4 ) ;
#210 = FACE_OUTER_BOUND ( 'NONE', #198, .T. ) ;
#211 = ORIENTED_EDGE ( 'NONE', *, *, #80, .F. ) ;
#212 = CARTESIAN_POINT ( 'NONE',  ( 0.0000000000000000000, 0.0000000000000000000, 26.00000000000000000 ) ) ;
#213 = CARTESIAN_POINT ( 'NONE',  ( 0.0000000000000000000, 0.0000000000000000000, 26.00000000000000000 ) ) ;
#214 = LINE ( 'NONE', #81, #166 ) ;
#215 = CARTESIAN_POINT ( 'NONE',  ( 0.0000000000000000000, 0.0000000000000000000, 26.00000000000000000 ) ) ;
#216 = DIRECTION ( 'NONE',  ( 0.0000000000000000000, 0.0000000000000000000, 1.000000000000000000 ) ) ;
#217 = DIRECTION ( 'NONE',  ( -0.0000000000000000000, -0.0000000000000000000, -1.000000000000000000 ) ) ;
#218 = DIRECTION ( 'NONE',  ( 1.000000000000000000, 0.0000000000000000000, 0.0000000000000000000 ) ) ;
#219 = ORIENTED_EDGE ( 'NONE', *, *, #125, .T. ) ;
#220 =( LENGTH_UNIT ( ) NAMED_UNIT ( * ) SI_UNIT ( .MILLI., .METRE. ) );
#221 = AXIS2_PLACEMENT_3D ( 'NONE', #69, #216, #222 ) ;
#222 = DIRECTION ( 'NONE',  ( 1.000000000000000000, 0.0000000000000000000, 0.0000000000000000000 ) ) ;
#223 = ORIENTED_EDGE ( 'NONE', *, *, #192, .F. ) ;
#224 = CC_DESIGN_PERSON_AND_ORGANIZATION_ASSIGNMENT ( #31, #91, ( #34 ) ) ;
#225 = LOCAL_TIME ( 9, 30, 24.00000000000000000, #134 ) ;
#226 = AXIS2_PLACEMENT_3D ( 'NONE', #44, #107, #146 ) ;
#227 = EDGE_LOOP ( 'NONE', ( #247, #16 ) ) ;
#228 = LINE ( 'NONE', #86, #131 ) ;
#229 = FACE_OUTER_BOUND ( 'NONE', #227, .T. ) ;
#230 = AXIS2_PLACEMENT_3D ( 'NONE', #159, #45, #185 ) ;
#231 = DIRECTION ( 'NONE',  ( -0.0000000000000000000, -0.0000000000000000000, -1.000000000000000000 ) ) ;
#232 = CARTESIAN_POINT ( 'NONE',  ( 207.5000000000000300, 2.541142108230757500E-014, 0.0000000000000000000 ) ) ;
#233 = CC_DESIGN_DATE_AND_TIME_ASSIGNMENT ( #17, #74, ( #34 ) ) ;
#234 = DIRECTION ( 'NONE',  ( 1.000000000000000000, 0.0000000000000000000, 0.0000000000000000000 ) ) ;
#235 = APPROVAL_PERSON_ORGANIZATION ( #116, #29, #204 ) ;
#236 = PERSON_AND_ORGANIZATION ( #35, #145 ) ;
#237 = DIRECTION ( 'NONE',  ( 0.0000000000000000000, 0.0000000000000000000, 1.000000000000000000 ) ) ;
#238 = VECTOR ( 'NONE', #25, 1000.000000000000000 ) ;
#239 =( NAMED_UNIT ( * ) PLANE_ANGLE_UNIT ( ) SI_UNIT ( $, .RADIAN. ) );
#240 = DIRECTION ( 'NONE',  ( 1.000000000000000000, 0.0000000000000000000, 0.0000000000000000000 ) ) ;
#241 = PERSON_AND_ORGANIZATION_ROLE ( 'design_owner' ) ;
#242 = PERSON_AND_ORGANIZATION_ROLE ( 'creator' ) ;
#243 = ORIENTED_EDGE ( 'NONE', *, *, #179, .T. ) ;
#244 = ADVANCED_FACE ( 'NONE', ( #190 ), #177, .T. ) ;
#245 = EDGE_CURVE ( 'NONE', #73, #15, #120, .T. ) ;
#246 = ORIENTED_EDGE ( 'NONE', *, *, #151, .F. ) ;
#247 = ORIENTED_EDGE ( 'NONE', *, *, #245, .T. ) ;
#248 = ADVANCED_BREP_SHAPE_REPRESENTATION ( 'Base_Micro_Un_sldprt', ( #139, #117 ), #77 ) ;
#249 = CC_DESIGN_SECURITY_CLASSIFICATION ( #34, ( #37 ) ) ;
ENDSEC;
END-ISO-10303-21;
