ISO-10303-21;
HEADER;
FILE_DESCRIPTION (( 'STEP AP203' ),
    '1' );
FILE_NAME ('Nacelle_Micro_Un_sldprt.STEP',
    '2018-04-10T07:33:30',
    ( '' ),
    ( '' ),
    'SwSTEP 2.0',
    'SolidWorks 2017',
    '' );
FILE_SCHEMA (( 'CONFIG_CONTROL_DESIGN' ));
ENDSEC;

DATA;
#1 = AXIS2_PLACEMENT_3D ( 'NONE', #90, #25, #6 ) ;
#2 = COORDINATED_UNIVERSAL_TIME_OFFSET ( 1, 0, .AHEAD. ) ;
#3 = ORIENTED_EDGE ( 'NONE', *, *, #185, .T. ) ;
#4 = CC_DESIGN_PERSON_AND_ORGANIZATION_ASSIGNMENT ( #211, #170, ( #68 ) ) ;
#5 = CARTESIAN_POINT ( 'NONE',  ( 0.0000000000000000000, 0.0000000000000000000, 26.00000000000000000 ) ) ;
#6 = DIRECTION ( 'NONE',  ( -1.000000000000000000, 0.0000000000000000000, 0.0000000000000000000 ) ) ;
#7 = CLOSED_SHELL ( 'NONE', ( #16, #210, #136, #82, #248, #189 ) ) ;
#8 = ORIENTED_EDGE ( 'NONE', *, *, #56, .T. ) ;
#9 = CARTESIAN_POINT ( 'NONE',  ( -149.9999999999999700, 0.0000000000000000000, 0.0000000000000000000 ) ) ;
#10 = FACE_OUTER_BOUND ( 'NONE', #235, .T. ) ;
#11 =( NAMED_UNIT ( * ) SI_UNIT ( $, .STERADIAN. ) SOLID_ANGLE_UNIT ( ) );
#12 = PRODUCT_DEFINITION_SHAPE ( 'NONE', 'NONE',  #231 ) ;
#13 = DIRECTION ( 'NONE',  ( 0.0000000000000000000, 0.0000000000000000000, 1.000000000000000000 ) ) ;
#14 = CYLINDRICAL_SURFACE ( 'NONE', #110, 149.9999999999999700 ) ;
#15 = ORIENTED_EDGE ( 'NONE', *, *, #182, .F. ) ;
#16 = ADVANCED_FACE ( 'NONE', ( #39 ), #146, .F. ) ;
#17 = AXIS2_PLACEMENT_3D ( 'NONE', #74, #79, #130 ) ;
#18 = COORDINATED_UNIVERSAL_TIME_OFFSET ( 1, 0, .AHEAD. ) ;
#19 = VERTEX_POINT ( 'NONE', #50 ) ;
#20 = MANIFOLD_SOLID_BREP ( 'Boss.-Extru.1', #7 ) ;
#21 = DIRECTION ( 'NONE',  ( 0.0000000000000000000, 0.0000000000000000000, 1.000000000000000000 ) ) ;
#22 = PERSON_AND_ORGANIZATION ( #198, #62 ) ;
#23 = CIRCLE ( 'NONE', #171, 149.9999999999999700 ) ;
#24 = EDGE_LOOP ( 'NONE', ( #234, #102, #173, #64 ) ) ;
#25 = DIRECTION ( 'NONE',  ( -0.0000000000000000000, -0.0000000000000000000, -1.000000000000000000 ) ) ;
#26 = DIRECTION ( 'NONE',  ( -0.0000000000000000000, -0.0000000000000000000, -1.000000000000000000 ) ) ;
#27 = LOCAL_TIME ( 9, 33, 30.00000000000000000, #2 ) ;
#28 = DIRECTION ( 'NONE',  ( 0.0000000000000000000, 0.0000000000000000000, 1.000000000000000000 ) ) ;
#29 = AXIS2_PLACEMENT_3D ( 'NONE', #51, #103, #207 ) ;
#30 = DIRECTION ( 'NONE',  ( 1.000000000000000000, 0.0000000000000000000, 0.0000000000000000000 ) ) ;
#31 = APPROVAL_STATUS ( 'not_yet_approved' ) ;
#32 = APPROVAL_PERSON_ORGANIZATION ( #22, #45, #98 ) ;
#33 = MECHANICAL_CONTEXT ( 'NONE', #77, 'mechanical' ) ;
#34 = LOCAL_TIME ( 9, 33, 30.00000000000000000, #18 ) ;
#35 = CYLINDRICAL_SURFACE ( 'NONE', #1, 82.00000000000000000 ) ;
#36 = LINE ( 'NONE', #147, #149 ) ;
#37 = CIRCLE ( 'NONE', #143, 149.9999999999999700 ) ;
#38 = ORIENTED_EDGE ( 'NONE', *, *, #56, .F. ) ;
#39 = FACE_OUTER_BOUND ( 'NONE', #138, .T. ) ;
#40 = UNCERTAINTY_MEASURE_WITH_UNIT (LENGTH_MEASURE( 1.000000000000000100E-005 ), #78, 'distance_accuracy_value', 'NONE');
#41 = DATE_AND_TIME ( #106, #209 ) ;
#42 = EDGE_CURVE ( 'NONE', #86, #19, #37, .T. ) ;
#43 = CIRCLE ( 'NONE', #80, 82.00000000000000000 ) ;
#44 = DIRECTION ( 'NONE',  ( 1.000000000000000000, 0.0000000000000000000, 0.0000000000000000000 ) ) ;
#45 = APPROVAL ( #31, 'UNSPECIFIED' ) ;
#46 = PLANE ( 'NONE',  #65 ) ;
#47 = DIRECTION ( 'NONE',  ( -0.0000000000000000000, -0.0000000000000000000, -1.000000000000000000 ) ) ;
#48 = PERSON_AND_ORGANIZATION ( #198, #62 ) ;
#49 = CARTESIAN_POINT ( 'NONE',  ( 0.0000000000000000000, 0.0000000000000000000, 0.0000000000000000000 ) ) ;
#50 = CARTESIAN_POINT ( 'NONE',  ( 149.9999999999999700, 1.836970198721029100E-014, 26.00000000000000000 ) ) ;
#51 = CARTESIAN_POINT ( 'NONE',  ( 0.0000000000000000000, 0.0000000000000000000, 26.00000000000000000 ) ) ;
#52 = DIRECTION ( 'NONE',  ( 1.000000000000000000, 0.0000000000000000000, 0.0000000000000000000 ) ) ;
#53 = EDGE_CURVE ( 'NONE', #19, #174, #217, .T. ) ;
#54 = PERSON_AND_ORGANIZATION ( #198, #62 ) ;
#55 = PERSON_AND_ORGANIZATION ( #198, #62 ) ;
#56 = EDGE_CURVE ( 'NONE', #118, #174, #23, .T. ) ;
#57 = CIRCLE ( 'NONE', #154, 82.00000000000000000 ) ;
#58 = CC_DESIGN_APPROVAL ( #45, ( #183 ) ) ;
#59 = CALENDAR_DATE ( 2018, 10, 4 ) ;
#60 = SHAPE_DEFINITION_REPRESENTATION ( #12, #158 ) ;
#61 = AXIS2_PLACEMENT_3D ( 'NONE', #114, #127, #123 ) ;
#62 = ORGANIZATION ( 'UNSPECIFIED', 'UNSPECIFIED', '' ) ;
#63 = VERTEX_POINT ( 'NONE', #92 ) ;
#64 = ORIENTED_EDGE ( 'NONE', *, *, #85, .F. ) ;
#65 = AXIS2_PLACEMENT_3D ( 'NONE', #180, #28, #116 ) ;
#66 = CARTESIAN_POINT ( 'NONE',  ( 0.0000000000000000000, 0.0000000000000000000, 26.00000000000000000 ) ) ;
#67 = CARTESIAN_POINT ( 'NONE',  ( -82.00000000000000000, 0.0000000000000000000, 0.0000000000000000000 ) ) ;
#68 = PRODUCT ( 'Nacelle_Micro_Un_sldprt', 'Nacelle_Micro_Un_sldprt', '', ( #33 ) ) ;
#69 = APPROVAL ( #101, 'UNSPECIFIED' ) ;
#70 = CARTESIAN_POINT ( 'NONE',  ( 149.9999999999999700, 1.836970198721029100E-014, 26.00000000000000000 ) ) ;
#71 = AXIS2_PLACEMENT_3D ( 'NONE', #117, #242, #52 ) ;
#72 = COORDINATED_UNIVERSAL_TIME_OFFSET ( 1, 0, .AHEAD. ) ;
#73 = APPROVAL_DATE_TIME ( #107, #69 ) ;
#74 = CARTESIAN_POINT ( 'NONE',  ( 0.0000000000000000000, 0.0000000000000000000, 0.0000000000000000000 ) ) ;
#75 = ORIENTED_EDGE ( 'NONE', *, *, #105, .T. ) ;
#76 = DIRECTION ( 'NONE',  ( 0.0000000000000000000, 0.0000000000000000000, 1.000000000000000000 ) ) ;
#77 = APPLICATION_CONTEXT ( 'configuration controlled 3d designs of mechanical parts and assemblies' ) ;
#78 =( LENGTH_UNIT ( ) NAMED_UNIT ( * ) SI_UNIT ( .MILLI., .METRE. ) );
#79 = DIRECTION ( 'NONE',  ( 0.0000000000000000000, 0.0000000000000000000, 1.000000000000000000 ) ) ;
#80 = AXIS2_PLACEMENT_3D ( 'NONE', #66, #200, #240 ) ;
#81 = ORIENTED_EDGE ( 'NONE', *, *, #249, .T. ) ;
#82 = ADVANCED_FACE ( 'NONE', ( #111, #168 ), #181, .F. ) ;
#83 = DATE_AND_TIME ( #93, #27 ) ;
#84 = LINE ( 'NONE', #166, #227 ) ;
#85 = EDGE_CURVE ( 'NONE', #86, #118, #84, .T. ) ;
#86 = VERTEX_POINT ( 'NONE', #220 ) ;
#87 = APPROVAL_DATE_TIME ( #187, #132 ) ;
#88 = FACE_OUTER_BOUND ( 'NONE', #109, .T. ) ;
#89 = VERTEX_POINT ( 'NONE', #67 ) ;
#90 = CARTESIAN_POINT ( 'NONE',  ( 0.0000000000000000000, 0.0000000000000000000, 26.00000000000000000 ) ) ;
#91 = CC_DESIGN_SECURITY_CLASSIFICATION ( #183, ( #239 ) ) ;
#92 = CARTESIAN_POINT ( 'NONE',  ( -82.00000000000000000, 0.0000000000000000000, 26.00000000000000000 ) ) ;
#93 = CALENDAR_DATE ( 2018, 10, 4 ) ;
#94 = CARTESIAN_POINT ( 'NONE',  ( 149.9999999999999700, 1.836970198721029100E-014, 0.0000000000000000000 ) ) ;
#95 = VECTOR ( 'NONE', #104, 1000.000000000000000 ) ;
#96 = CIRCLE ( 'NONE', #236, 82.00000000000000000 ) ;
#97 = DIRECTION ( 'NONE',  ( 0.0000000000000000000, 0.0000000000000000000, 1.000000000000000000 ) ) ;
#98 = APPROVAL_ROLE ( '' ) ;
#99 = DIRECTION ( 'NONE',  ( -0.0000000000000000000, -0.0000000000000000000, -1.000000000000000000 ) ) ;
#100 = ORIENTED_EDGE ( 'NONE', *, *, #85, .T. ) ;
#101 = APPROVAL_STATUS ( 'not_yet_approved' ) ;
#102 = ORIENTED_EDGE ( 'NONE', *, *, #53, .T. ) ;
#103 = DIRECTION ( 'NONE',  ( -0.0000000000000000000, -0.0000000000000000000, -1.000000000000000000 ) ) ;
#104 = DIRECTION ( 'NONE',  ( -0.0000000000000000000, -0.0000000000000000000, -1.000000000000000000 ) ) ;
#105 = EDGE_CURVE ( 'NONE', #112, #63, #43, .T. ) ;
#106 = CALENDAR_DATE ( 2018, 10, 4 ) ;
#107 = DATE_AND_TIME ( #135, #122 ) ;
#108 = CC_DESIGN_APPROVAL ( #132, ( #239 ) ) ;
#109 = EDGE_LOOP ( 'NONE', ( #15, #75, #233, #197 ) ) ;
#110 = AXIS2_PLACEMENT_3D ( 'NONE', #150, #99, #151 ) ;
#111 = FACE_OUTER_BOUND ( 'NONE', #140, .T. ) ;
#112 = VERTEX_POINT ( 'NONE', #113 ) ;
#113 = CARTESIAN_POINT ( 'NONE',  ( 82.00000000000000000, 1.004210375300829500E-014, 26.00000000000000000 ) ) ;
#114 = CARTESIAN_POINT ( 'NONE',  ( 0.0000000000000000000, 0.0000000000000000000, 26.00000000000000000 ) ) ;
#115 = CC_DESIGN_PERSON_AND_ORGANIZATION_ASSIGNMENT ( #137, #148, ( #239 ) ) ;
#116 = DIRECTION ( 'NONE',  ( 1.000000000000000000, 0.0000000000000000000, -0.0000000000000000000 ) ) ;
#117 = CARTESIAN_POINT ( 'NONE',  ( 0.0000000000000000000, 0.0000000000000000000, 0.0000000000000000000 ) ) ;
#118 = VERTEX_POINT ( 'NONE', #9 ) ;
#119 = SECURITY_CLASSIFICATION_LEVEL ( 'unclassified' ) ;
#120 = APPROVAL_STATUS ( 'not_yet_approved' ) ;
#121 = CC_DESIGN_PERSON_AND_ORGANIZATION_ASSIGNMENT ( #48, #131, ( #239 ) ) ;
#122 = LOCAL_TIME ( 9, 33, 30.00000000000000000, #145 ) ;
#123 = DIRECTION ( 'NONE',  ( -1.000000000000000000, 0.0000000000000000000, 0.0000000000000000000 ) ) ;
#124 = DESIGN_CONTEXT ( 'detailed design', #228, 'design' ) ;
#125 = ORIENTED_EDGE ( 'NONE', *, *, #182, .T. ) ;
#126 = CARTESIAN_POINT ( 'NONE',  ( 0.0000000000000000000, 0.0000000000000000000, 0.0000000000000000000 ) ) ;
#127 = DIRECTION ( 'NONE',  ( -0.0000000000000000000, -0.0000000000000000000, -1.000000000000000000 ) ) ;
#128 = DIRECTION ( 'NONE',  ( 0.0000000000000000000, 0.0000000000000000000, 1.000000000000000000 ) ) ;
#129 = ORIENTED_EDGE ( 'NONE', *, *, #185, .F. ) ;
#130 = DIRECTION ( 'NONE',  ( 1.000000000000000000, 0.0000000000000000000, 0.0000000000000000000 ) ) ;
#131 = PERSON_AND_ORGANIZATION_ROLE ( 'design_supplier' ) ;
#132 = APPROVAL ( #120, 'UNSPECIFIED' ) ;
#133 = DATE_TIME_ROLE ( 'classification_date' ) ;
#134 = EDGE_LOOP ( 'NONE', ( #212, #194, #100, #8 ) ) ;
#135 = CALENDAR_DATE ( 2018, 10, 4 ) ;
#136 = ADVANCED_FACE ( 'NONE', ( #10, #193 ), #46, .T. ) ;
#137 = PERSON_AND_ORGANIZATION ( #198, #62 ) ;
#138 = EDGE_LOOP ( 'NONE', ( #224, #125, #129, #215 ) ) ;
#139 = EDGE_CURVE ( 'NONE', #63, #112, #96, .T. ) ;
#140 = EDGE_LOOP ( 'NONE', ( #38, #162 ) ) ;
#141 = DIRECTION ( 'NONE',  ( 0.0000000000000000000, 0.0000000000000000000, 1.000000000000000000 ) ) ;
#142 = AXIS2_PLACEMENT_3D ( 'NONE', #241, #128, #44 ) ;
#143 = AXIS2_PLACEMENT_3D ( 'NONE', #5, #97, #218 ) ;
#144 = COORDINATED_UNIVERSAL_TIME_OFFSET ( 1, 0, .AHEAD. ) ;
#145 = COORDINATED_UNIVERSAL_TIME_OFFSET ( 1, 0, .AHEAD. ) ;
#146 = CYLINDRICAL_SURFACE ( 'NONE', #61, 82.00000000000000000 ) ;
#147 = CARTESIAN_POINT ( 'NONE',  ( 82.00000000000000000, 1.004210375300829500E-014, 26.00000000000000000 ) ) ;
#148 = PERSON_AND_ORGANIZATION_ROLE ( 'creator' ) ;
#149 = VECTOR ( 'NONE', #199, 1000.000000000000000 ) ;
#150 = CARTESIAN_POINT ( 'NONE',  ( 0.0000000000000000000, 0.0000000000000000000, 26.00000000000000000 ) ) ;
#151 = DIRECTION ( 'NONE',  ( -1.000000000000000000, 0.0000000000000000000, 0.0000000000000000000 ) ) ;
#152 = CC_DESIGN_PERSON_AND_ORGANIZATION_ASSIGNMENT ( #54, #230, ( #183 ) ) ;
#153 = CIRCLE ( 'NONE', #192, 149.9999999999999700 ) ;
#154 = AXIS2_PLACEMENT_3D ( 'NONE', #49, #13, #30 ) ;
#155 = EDGE_CURVE ( 'NONE', #174, #118, #161, .T. ) ;
#156 = VECTOR ( 'NONE', #47, 1000.000000000000000 ) ;
#157 = PRODUCT_RELATED_PRODUCT_CATEGORY ( 'detail', '', ( #68 ) ) ;
#158 = ADVANCED_BREP_SHAPE_REPRESENTATION ( 'Nacelle_Micro_Un_sldprt', ( #20, #17 ), #216 ) ;
#159 = DATE_AND_TIME ( #190, #232 ) ;
#160 = CIRCLE ( 'NONE', #71, 82.00000000000000000 ) ;
#161 = CIRCLE ( 'NONE', #142, 149.9999999999999700 ) ;
#162 = ORIENTED_EDGE ( 'NONE', *, *, #155, .F. ) ;
#163 = DIRECTION ( 'NONE',  ( 1.000000000000000000, 0.0000000000000000000, 0.0000000000000000000 ) ) ;
#164 = DIRECTION ( 'NONE',  ( 1.000000000000000000, 0.0000000000000000000, -0.0000000000000000000 ) ) ;
#165 = CARTESIAN_POINT ( 'NONE',  ( 0.0000000000000000000, 0.0000000000000000000, 26.00000000000000000 ) ) ;
#166 = CARTESIAN_POINT ( 'NONE',  ( -149.9999999999999700, 0.0000000000000000000, 26.00000000000000000 ) ) ;
#167 = DIRECTION ( 'NONE',  ( 1.000000000000000000, 0.0000000000000000000, 0.0000000000000000000 ) ) ;
#168 = FACE_BOUND ( 'NONE', #223, .T. ) ;
#169 = FACE_OUTER_BOUND ( 'NONE', #134, .T. ) ;
#170 = PERSON_AND_ORGANIZATION_ROLE ( 'design_owner' ) ;
#171 = AXIS2_PLACEMENT_3D ( 'NONE', #203, #177, #221 ) ;
#172 = PERSON_AND_ORGANIZATION ( #198, #62 ) ;
#173 = ORIENTED_EDGE ( 'NONE', *, *, #155, .T. ) ;
#174 = VERTEX_POINT ( 'NONE', #94 ) ;
#175 = EDGE_LOOP ( 'NONE', ( #219, #178 ) ) ;
#176 = CC_DESIGN_DATE_AND_TIME_ASSIGNMENT ( #83, #225, ( #231 ) ) ;
#177 = DIRECTION ( 'NONE',  ( 0.0000000000000000000, 0.0000000000000000000, 1.000000000000000000 ) ) ;
#178 = ORIENTED_EDGE ( 'NONE', *, *, #105, .F. ) ;
#179 = ORIENTED_EDGE ( 'NONE', *, *, #42, .T. ) ;
#180 = CARTESIAN_POINT ( 'NONE',  ( 0.0000000000000000000, 0.0000000000000000000, 26.00000000000000000 ) ) ;
#181 = PLANE ( 'NONE',  #188 ) ;
#182 = EDGE_CURVE ( 'NONE', #112, #191, #36, .T. ) ;
#183 = SECURITY_CLASSIFICATION ( '', '', #119 ) ;
#184 =( NAMED_UNIT ( * ) PLANE_ANGLE_UNIT ( ) SI_UNIT ( $, .RADIAN. ) );
#185 = EDGE_CURVE ( 'NONE', #89, #191, #57, .T. ) ;
#186 = CARTESIAN_POINT ( 'NONE',  ( 0.0000000000000000000, 0.0000000000000000000, 26.00000000000000000 ) ) ;
#187 = DATE_AND_TIME ( #59, #34 ) ;
#188 = AXIS2_PLACEMENT_3D ( 'NONE', #126, #141, #164 ) ;
#189 = ADVANCED_FACE ( 'NONE', ( #88 ), #35, .F. ) ;
#190 = CALENDAR_DATE ( 2018, 10, 4 ) ;
#191 = VERTEX_POINT ( 'NONE', #205 ) ;
#192 = AXIS2_PLACEMENT_3D ( 'NONE', #186, #76, #167 ) ;
#193 = FACE_BOUND ( 'NONE', #175, .T. ) ;
#194 = ORIENTED_EDGE ( 'NONE', *, *, #42, .F. ) ;
#195 = CYLINDRICAL_SURFACE ( 'NONE', #29, 149.9999999999999700 ) ;
#196 = FACE_OUTER_BOUND ( 'NONE', #24, .T. ) ;
#197 = ORIENTED_EDGE ( 'NONE', *, *, #229, .F. ) ;
#198 = PERSON ( 'UNSPECIFIED', 'UNSPECIFIED', 'UNSPECIFIED', ('UNSPECIFIED'), ('UNSPECIFIED'), ('UNSPECIFIED') ) ;
#199 = DIRECTION ( 'NONE',  ( -0.0000000000000000000, -0.0000000000000000000, -1.000000000000000000 ) ) ;
#200 = DIRECTION ( 'NONE',  ( 0.0000000000000000000, 0.0000000000000000000, 1.000000000000000000 ) ) ;
#201 = PERSON_AND_ORGANIZATION ( #198, #62 ) ;
#202 = ORIENTED_EDGE ( 'NONE', *, *, #229, .T. ) ;
#203 = CARTESIAN_POINT ( 'NONE',  ( 0.0000000000000000000, 0.0000000000000000000, 0.0000000000000000000 ) ) ;
#204 = APPLICATION_PROTOCOL_DEFINITION ( 'international standard', 'config_control_design', 1994, #77 ) ;
#205 = CARTESIAN_POINT ( 'NONE',  ( 82.00000000000000000, 1.004210375300829500E-014, 0.0000000000000000000 ) ) ;
#206 = APPLICATION_PROTOCOL_DEFINITION ( 'international standard', 'config_control_design', 1994, #228 ) ;
#207 = DIRECTION ( 'NONE',  ( -1.000000000000000000, 0.0000000000000000000, 0.0000000000000000000 ) ) ;
#208 = APPROVAL_ROLE ( '' ) ;
#209 = LOCAL_TIME ( 9, 33, 30.00000000000000000, #144 ) ;
#210 = ADVANCED_FACE ( 'NONE', ( #196 ), #195, .T. ) ;
#211 = PERSON_AND_ORGANIZATION ( #198, #62 ) ;
#212 = ORIENTED_EDGE ( 'NONE', *, *, #53, .F. ) ;
#213 = CC_DESIGN_PERSON_AND_ORGANIZATION_ASSIGNMENT ( #55, #246, ( #231 ) ) ;
#214 = APPROVAL_PERSON_ORGANIZATION ( #201, #69, #208 ) ;
#215 = ORIENTED_EDGE ( 'NONE', *, *, #237, .F. ) ;
#216 =( GEOMETRIC_REPRESENTATION_CONTEXT ( 3 ) GLOBAL_UNCERTAINTY_ASSIGNED_CONTEXT ( ( #40 ) ) GLOBAL_UNIT_ASSIGNED_CONTEXT ( ( #78, #184, #11 ) ) REPRESENTATION_CONTEXT ( 'NONE', 'WORKASPACE' ) );
#217 = LINE ( 'NONE', #70, #156 ) ;
#218 = DIRECTION ( 'NONE',  ( 1.000000000000000000, 0.0000000000000000000, 0.0000000000000000000 ) ) ;
#219 = ORIENTED_EDGE ( 'NONE', *, *, #139, .F. ) ;
#220 = CARTESIAN_POINT ( 'NONE',  ( -149.9999999999999700, 0.0000000000000000000, 26.00000000000000000 ) ) ;
#221 = DIRECTION ( 'NONE',  ( 1.000000000000000000, 0.0000000000000000000, 0.0000000000000000000 ) ) ;
#222 = CC_DESIGN_APPROVAL ( #69, ( #231 ) ) ;
#223 = EDGE_LOOP ( 'NONE', ( #3, #202 ) ) ;
#224 = ORIENTED_EDGE ( 'NONE', *, *, #139, .T. ) ;
#225 = DATE_TIME_ROLE ( 'creation_date' ) ;
#226 = APPROVAL_DATE_TIME ( #159, #45 ) ;
#227 = VECTOR ( 'NONE', #26, 1000.000000000000000 ) ;
#228 = APPLICATION_CONTEXT ( 'configuration controlled 3d designs of mechanical parts and assemblies' ) ;
#229 = EDGE_CURVE ( 'NONE', #191, #89, #160, .T. ) ;
#230 = PERSON_AND_ORGANIZATION_ROLE ( 'classification_officer' ) ;
#231 = PRODUCT_DEFINITION ( 'UNKNOWN', '', #239, #124 ) ;
#232 = LOCAL_TIME ( 9, 33, 30.00000000000000000, #72 ) ;
#233 = ORIENTED_EDGE ( 'NONE', *, *, #237, .T. ) ;
#234 = ORIENTED_EDGE ( 'NONE', *, *, #249, .F. ) ;
#235 = EDGE_LOOP ( 'NONE', ( #179, #81 ) ) ;
#236 = AXIS2_PLACEMENT_3D ( 'NONE', #165, #21, #163 ) ;
#237 = EDGE_CURVE ( 'NONE', #63, #89, #244, .T. ) ;
#238 = APPROVAL_PERSON_ORGANIZATION ( #172, #132, #245 ) ;
#239 = PRODUCT_DEFINITION_FORMATION_WITH_SPECIFIED_SOURCE ( 'ANY', '', #68, .NOT_KNOWN. ) ;
#240 = DIRECTION ( 'NONE',  ( 1.000000000000000000, 0.0000000000000000000, 0.0000000000000000000 ) ) ;
#241 = CARTESIAN_POINT ( 'NONE',  ( 0.0000000000000000000, 0.0000000000000000000, 0.0000000000000000000 ) ) ;
#242 = DIRECTION ( 'NONE',  ( 0.0000000000000000000, 0.0000000000000000000, 1.000000000000000000 ) ) ;
#243 = CARTESIAN_POINT ( 'NONE',  ( -82.00000000000000000, 0.0000000000000000000, 26.00000000000000000 ) ) ;
#244 = LINE ( 'NONE', #243, #95 ) ;
#245 = APPROVAL_ROLE ( '' ) ;
#246 = PERSON_AND_ORGANIZATION_ROLE ( 'creator' ) ;
#247 = CC_DESIGN_DATE_AND_TIME_ASSIGNMENT ( #41, #133, ( #183 ) ) ;
#248 = ADVANCED_FACE ( 'NONE', ( #169 ), #14, .T. ) ;
#249 = EDGE_CURVE ( 'NONE', #19, #86, #153, .T. ) ;
ENDSEC;
END-ISO-10303-21;
