ISO-10303-21;
HEADER;
FILE_DESCRIPTION (( 'STEP AP203' ),
    '1' );
FILE_NAME ('BrasBas_Micro_Un_sldprt.STEP',
    '2018-04-10T07:30:56',
    ( '' ),
    ( '' ),
    'SwSTEP 2.0',
    'SolidWorks 2017',
    '' );
FILE_SCHEMA (( 'CONFIG_CONTROL_DESIGN' ));
ENDSEC;

DATA;
#1 = ORIENTED_EDGE ( 'NONE', *, *, #173, .F. ) ;
#2 = CC_DESIGN_PERSON_AND_ORGANIZATION_ASSIGNMENT ( #33, #131, ( #199 ) ) ;
#3 = PRODUCT_DEFINITION_SHAPE ( 'NONE', 'NONE',  #138 ) ;
#4 = APPROVAL_PERSON_ORGANIZATION ( #112, #23, #230 ) ;
#5 = ORIENTED_EDGE ( 'NONE', *, *, #91, .T. ) ;
#6 = COORDINATED_UNIVERSAL_TIME_OFFSET ( 1, 0, .AHEAD. ) ;
#7 = VERTEX_POINT ( 'NONE', #18 ) ;
#8 = CARTESIAN_POINT ( 'NONE',  ( -24.99999999999999600, 0.0000000000000000000, 0.0000000000000000000 ) ) ;
#9 = AXIS2_PLACEMENT_3D ( 'NONE', #106, #162, #196 ) ;
#10 = LOCAL_TIME ( 9, 30, 56.00000000000000000, #132 ) ;
#11 = DIRECTION ( 'NONE',  ( 1.000000000000000000, 0.0000000000000000000, 0.0000000000000000000 ) ) ;
#12 = CARTESIAN_POINT ( 'NONE',  ( 0.0000000000000000000, 0.0000000000000000000, 0.0000000000000000000 ) ) ;
#13 = CARTESIAN_POINT ( 'NONE',  ( 0.0000000000000000000, 0.0000000000000000000, 0.0000000000000000000 ) ) ;
#14 = PERSON_AND_ORGANIZATION ( #15, #224 ) ;
#15 = PERSON ( 'UNSPECIFIED', 'UNSPECIFIED', 'UNSPECIFIED', ('UNSPECIFIED'), ('UNSPECIFIED'), ('UNSPECIFIED') ) ;
#16 = PRODUCT ( 'BrasBas_Micro_Un_sldprt', 'BrasBas_Micro_Un_sldprt', '', ( #53 ) ) ;
#17 = ORIENTED_EDGE ( 'NONE', *, *, #99, .F. ) ;
#18 = CARTESIAN_POINT ( 'NONE',  ( 24.99999999999999600, 3.061616997868382600E-015, 0.0000000000000000000 ) ) ;
#19 = ORIENTED_EDGE ( 'NONE', *, *, #114, .F. ) ;
#20 = CIRCLE ( 'NONE', #187, 12.99999999999999800 ) ;
#21 = ORIENTED_EDGE ( 'NONE', *, *, #119, .F. ) ;
#22 = LINE ( 'NONE', #226, #24 ) ;
#23 = APPROVAL ( #167, 'UNSPECIFIED' ) ;
#24 = VECTOR ( 'NONE', #108, 1000.000000000000000 ) ;
#25 = ADVANCED_FACE ( 'NONE', ( #188 ), #56, .T. ) ;
#26 = ADVANCED_FACE ( 'NONE', ( #148 ), #154, .T. ) ;
#27 = DIRECTION ( 'NONE',  ( -0.0000000000000000000, -0.0000000000000000000, -1.000000000000000000 ) ) ;
#28 = CC_DESIGN_SECURITY_CLASSIFICATION ( #39, ( #199 ) ) ;
#29 = DIRECTION ( 'NONE',  ( 1.000000000000000000, 0.0000000000000000000, -0.0000000000000000000 ) ) ;
#30 = CARTESIAN_POINT ( 'NONE',  ( 0.0000000000000000000, 0.0000000000000000000, 0.0000000000000000000 ) ) ;
#31 = AXIS2_PLACEMENT_3D ( 'NONE', #89, #192, #158 ) ;
#32 = VERTEX_POINT ( 'NONE', #8 ) ;
#33 = PERSON_AND_ORGANIZATION ( #15, #224 ) ;
#34 = DIRECTION ( 'NONE',  ( -0.0000000000000000000, -0.0000000000000000000, -1.000000000000000000 ) ) ;
#35 = CC_DESIGN_APPROVAL ( #208, ( #199 ) ) ;
#36 = PERSON_AND_ORGANIZATION_ROLE ( 'creator' ) ;
#37 = EDGE_CURVE ( 'NONE', #77, #73, #174, .T. ) ;
#38 = EDGE_LOOP ( 'NONE', ( #181, #19, #151, #80 ) ) ;
#39 = SECURITY_CLASSIFICATION ( '', '', #228 ) ;
#40 = CC_DESIGN_PERSON_AND_ORGANIZATION_ASSIGNMENT ( #121, #198, ( #39 ) ) ;
#41 = AXIS2_PLACEMENT_3D ( 'NONE', #12, #88, #123 ) ;
#42 = DATE_AND_TIME ( #129, #97 ) ;
#43 = ADVANCED_FACE ( 'NONE', ( #137 ), #105, .T. ) ;
#44 = CC_DESIGN_PERSON_AND_ORGANIZATION_ASSIGNMENT ( #55, #168, ( #138 ) ) ;
#45 = DIRECTION ( 'NONE',  ( 1.000000000000000000, 0.0000000000000000000, 0.0000000000000000000 ) ) ;
#46 = LINE ( 'NONE', #122, #117 ) ;
#47 = DIRECTION ( 'NONE',  ( 0.0000000000000000000, 1.000000000000000000, 1.185187658084453000E-031 ) ) ;
#48 = APPROVAL ( #128, 'UNSPECIFIED' ) ;
#49 = ORIENTED_EDGE ( 'NONE', *, *, #99, .T. ) ;
#50 = PERSON_AND_ORGANIZATION ( #15, #224 ) ;
#51 = AXIS2_PLACEMENT_3D ( 'NONE', #30, #67, #156 ) ;
#52 = APPLICATION_CONTEXT ( 'configuration controlled 3d designs of mechanical parts and assemblies' ) ;
#53 = MECHANICAL_CONTEXT ( 'NONE', #149, 'mechanical' ) ;
#54 = AXIS2_PLACEMENT_3D ( 'NONE', #183, #75, #182 ) ;
#55 = PERSON_AND_ORGANIZATION ( #15, #224 ) ;
#56 = CYLINDRICAL_SURFACE ( 'NONE', #185, 24.99999999999999600 ) ;
#57 = PRODUCT_RELATED_PRODUCT_CATEGORY ( 'detail', '', ( #16 ) ) ;
#58 = DATE_AND_TIME ( #139, #171 ) ;
#59 = CIRCLE ( 'NONE', #113, 12.99999999999999800 ) ;
#60 = AXIS2_PLACEMENT_3D ( 'NONE', #210, #160, #209 ) ;
#61 = ORIENTED_EDGE ( 'NONE', *, *, #37, .F. ) ;
#62 =( GEOMETRIC_REPRESENTATION_CONTEXT ( 3 ) GLOBAL_UNCERTAINTY_ASSIGNED_CONTEXT ( ( #166 ) ) GLOBAL_UNIT_ASSIGNED_CONTEXT ( ( #107, #165, #71 ) ) REPRESENTATION_CONTEXT ( 'NONE', 'WORKASPACE' ) );
#63 = DIRECTION ( 'NONE',  ( 0.0000000000000000000, 0.0000000000000000000, -1.000000000000000000 ) ) ;
#64 = DATE_AND_TIME ( #85, #136 ) ;
#65 = CARTESIAN_POINT ( 'NONE',  ( 0.0000000000000000000, 0.0000000000000000000, 0.0000000000000000000 ) ) ;
#66 = DIRECTION ( 'NONE',  ( 1.000000000000000000, 0.0000000000000000000, 0.0000000000000000000 ) ) ;
#67 = DIRECTION ( 'NONE',  ( 0.0000000000000000000, 0.0000000000000000000, 1.000000000000000000 ) ) ;
#68 = ORIENTED_EDGE ( 'NONE', *, *, #91, .F. ) ;
#69 = CIRCLE ( 'NONE', #54, 24.99999999999999600 ) ;
#70 = APPROVAL_STATUS ( 'not_yet_approved' ) ;
#71 =( NAMED_UNIT ( * ) SI_UNIT ( $, .STERADIAN. ) SOLID_ANGLE_UNIT ( ) );
#72 = COORDINATED_UNIVERSAL_TIME_OFFSET ( 1, 0, .AHEAD. ) ;
#73 = VERTEX_POINT ( 'NONE', #178 ) ;
#74 = APPROVAL_ROLE ( '' ) ;
#75 = DIRECTION ( 'NONE',  ( 0.0000000000000000000, 0.0000000000000000000, 1.000000000000000000 ) ) ;
#76 = AXIS2_PLACEMENT_3D ( 'NONE', #13, #197, #47 ) ;
#77 = VERTEX_POINT ( 'NONE', #223 ) ;
#78 = EDGE_CURVE ( 'NONE', #126, #77, #147, .T. ) ;
#79 = DESIGN_CONTEXT ( 'detailed design', #52, 'design' ) ;
#80 = ORIENTED_EDGE ( 'NONE', *, *, #190, .T. ) ;
#81 = CALENDAR_DATE ( 2018, 10, 4 ) ;
#82 = CYLINDRICAL_SURFACE ( 'NONE', #204, 24.99999999999999600 ) ;
#83 = FACE_BOUND ( 'NONE', #135, .T. ) ;
#84 = ORIENTED_EDGE ( 'NONE', *, *, #87, .T. ) ;
#85 = CALENDAR_DATE ( 2018, 10, 4 ) ;
#86 = DIRECTION ( 'NONE',  ( -0.0000000000000000000, -0.0000000000000000000, -1.000000000000000000 ) ) ;
#87 = EDGE_CURVE ( 'NONE', #7, #32, #133, .T. ) ;
#88 = DIRECTION ( 'NONE',  ( -0.0000000000000000000, -0.0000000000000000000, -1.000000000000000000 ) ) ;
#89 = CARTESIAN_POINT ( 'NONE',  ( 0.0000000000000000000, 0.0000000000000000000, 0.0000000000000000000 ) ) ;
#90 = APPROVAL_DATE_TIME ( #146, #48 ) ;
#91 = EDGE_CURVE ( 'NONE', #116, #180, #203, .T. ) ;
#92 = DIRECTION ( 'NONE',  ( 0.0000000000000000000, 0.0000000000000000000, 1.000000000000000000 ) ) ;
#93 = PERSON_AND_ORGANIZATION ( #15, #224 ) ;
#94 = DATE_TIME_ROLE ( 'creation_date' ) ;
#95 = APPLICATION_PROTOCOL_DEFINITION ( 'international standard', 'config_control_design', 1994, #52 ) ;
#96 = AXIS2_PLACEMENT_3D ( 'NONE', #229, #110, #214 ) ;
#97 = LOCAL_TIME ( 9, 30, 56.00000000000000000, #175 ) ;
#98 = ORIENTED_EDGE ( 'NONE', *, *, #78, .T. ) ;
#99 = EDGE_CURVE ( 'NONE', #126, #73, #20, .T. ) ;
#100 = DATE_AND_TIME ( #81, #207 ) ;
#101 = CLOSED_SHELL ( 'NONE', ( #104, #127, #25, #43, #144, #26 ) ) ;
#102 = CARTESIAN_POINT ( 'NONE',  ( 24.99999999999999600, 3.061616997868382600E-015, 200.0000000000000000 ) ) ;
#103 = CARTESIAN_POINT ( 'NONE',  ( 0.0000000000000000000, 7.960204194457810300E-016, -12.99999999999999800 ) ) ;
#104 = ADVANCED_FACE ( 'NONE', ( #219 ), #164, .T. ) ;
#105 = PLANE ( 'NONE',  #60 ) ;
#106 = CARTESIAN_POINT ( 'NONE',  ( 0.0000000000000000000, 0.0000000000000000000, 200.0000000000000000 ) ) ;
#107 =( LENGTH_UNIT ( ) NAMED_UNIT ( * ) SI_UNIT ( .MILLI., .METRE. ) );
#108 = DIRECTION ( 'NONE',  ( -0.0000000000000000000, -0.0000000000000000000, -1.000000000000000000 ) ) ;
#109 = APPROVAL_ROLE ( '' ) ;
#110 = DIRECTION ( 'NONE',  ( 0.0000000000000000000, 0.0000000000000000000, 1.000000000000000000 ) ) ;
#111 = ORIENTED_EDGE ( 'NONE', *, *, #87, .F. ) ;
#112 = PERSON_AND_ORGANIZATION ( #15, #224 ) ;
#113 = AXIS2_PLACEMENT_3D ( 'NONE', #65, #222, #11 ) ;
#114 = EDGE_CURVE ( 'NONE', #180, #116, #118, .T. ) ;
#115 = CALENDAR_DATE ( 2018, 10, 4 ) ;
#116 = VERTEX_POINT ( 'NONE', #102 ) ;
#117 = VECTOR ( 'NONE', #34, 1000.000000000000000 ) ;
#118 = CIRCLE ( 'NONE', #9, 24.99999999999999600 ) ;
#119 = EDGE_CURVE ( 'NONE', #73, #77, #59, .T. ) ;
#120 = ORIENTED_EDGE ( 'NONE', *, *, #78, .F. ) ;
#121 = PERSON_AND_ORGANIZATION ( #15, #224 ) ;
#122 = CARTESIAN_POINT ( 'NONE',  ( -24.99999999999999600, 0.0000000000000000000, 200.0000000000000000 ) ) ;
#123 = DIRECTION ( 'NONE',  ( 1.000000000000000000, 0.0000000000000000000, 0.0000000000000000000 ) ) ;
#124 = DIRECTION ( 'NONE',  ( 0.0000000000000000000, 0.0000000000000000000, 1.000000000000000000 ) ) ;
#125 = AXIS2_PLACEMENT_3D ( 'NONE', #211, #124, #29 ) ;
#126 = VERTEX_POINT ( 'NONE', #103 ) ;
#127 = ADVANCED_FACE ( 'NONE', ( #231 ), #82, .T. ) ;
#128 = APPROVAL_STATUS ( 'not_yet_approved' ) ;
#129 = CALENDAR_DATE ( 2018, 10, 4 ) ;
#130 = DATE_TIME_ROLE ( 'classification_date' ) ;
#131 = PERSON_AND_ORGANIZATION_ROLE ( 'design_supplier' ) ;
#132 = COORDINATED_UNIVERSAL_TIME_OFFSET ( 1, 0, .AHEAD. ) ;
#133 = CIRCLE ( 'NONE', #51, 24.99999999999999600 ) ;
#134 = CC_DESIGN_APPROVAL ( #23, ( #138 ) ) ;
#135 = EDGE_LOOP ( 'NONE', ( #61, #21 ) ) ;
#136 = LOCAL_TIME ( 9, 30, 56.00000000000000000, #153 ) ;
#137 = FACE_OUTER_BOUND ( 'NONE', #218, .T. ) ;
#138 = PRODUCT_DEFINITION ( 'UNKNOWN', '', #199, #79 ) ;
#139 = CALENDAR_DATE ( 2018, 10, 4 ) ;
#140 = APPROVAL_DATE_TIME ( #42, #208 ) ;
#141 = CC_DESIGN_PERSON_AND_ORGANIZATION_ASSIGNMENT ( #14, #200, ( #16 ) ) ;
#142 = CARTESIAN_POINT ( 'NONE',  ( 0.0000000000000000000, 0.0000000000000000000, 200.0000000000000000 ) ) ;
#143 = CARTESIAN_POINT ( 'NONE',  ( 0.0000000000000000000, 0.0000000000000000000, 200.0000000000000000 ) ) ;
#144 = ADVANCED_FACE ( 'NONE', ( #83, #217 ), #195, .F. ) ;
#145 = CARTESIAN_POINT ( 'NONE',  ( 0.0000000000000000000, 0.0000000000000000000, 0.0000000000000000000 ) ) ;
#146 = DATE_AND_TIME ( #115, #10 ) ;
#147 = CIRCLE ( 'NONE', #155, 12.99999999999999800 ) ;
#148 = FACE_OUTER_BOUND ( 'NONE', #170, .T. ) ;
#149 = APPLICATION_CONTEXT ( 'configuration controlled 3d designs of mechanical parts and assemblies' ) ;
#150 = ORIENTED_EDGE ( 'NONE', *, *, #114, .T. ) ;
#151 = ORIENTED_EDGE ( 'NONE', *, *, #173, .T. ) ;
#152 = AXIS2_PLACEMENT_3D ( 'NONE', #143, #92, #66 ) ;
#153 = COORDINATED_UNIVERSAL_TIME_OFFSET ( 1, 0, .AHEAD. ) ;
#154 = SPHERICAL_SURFACE ( 'NONE', #31, 12.99999999999999800 ) ;
#155 = AXIS2_PLACEMENT_3D ( 'NONE', #212, #45, #63 ) ;
#156 = DIRECTION ( 'NONE',  ( 1.000000000000000000, 0.0000000000000000000, 0.0000000000000000000 ) ) ;
#157 = EDGE_LOOP ( 'NONE', ( #227, #111 ) ) ;
#158 = DIRECTION ( 'NONE',  ( 0.0000000000000000000, 1.000000000000000000, 1.185187658084453000E-031 ) ) ;
#159 = CC_DESIGN_APPROVAL ( #48, ( #39 ) ) ;
#160 = DIRECTION ( 'NONE',  ( 0.0000000000000000000, 0.0000000000000000000, 1.000000000000000000 ) ) ;
#161 = EDGE_CURVE ( 'NONE', #116, #7, #22, .T. ) ;
#162 = DIRECTION ( 'NONE',  ( 0.0000000000000000000, 0.0000000000000000000, 1.000000000000000000 ) ) ;
#163 = ORIENTED_EDGE ( 'NONE', *, *, #161, .T. ) ;
#164 = SPHERICAL_SURFACE ( 'NONE', #76, 12.99999999999999800 ) ;
#165 =( NAMED_UNIT ( * ) PLANE_ANGLE_UNIT ( ) SI_UNIT ( $, .RADIAN. ) );
#166 = UNCERTAINTY_MEASURE_WITH_UNIT (LENGTH_MEASURE( 1.000000000000000100E-005 ), #107, 'distance_accuracy_value', 'NONE');
#167 = APPROVAL_STATUS ( 'not_yet_approved' ) ;
#168 = PERSON_AND_ORGANIZATION_ROLE ( 'creator' ) ;
#169 = PERSON_AND_ORGANIZATION ( #15, #224 ) ;
#170 = EDGE_LOOP ( 'NONE', ( #17, #98, #186 ) ) ;
#171 = LOCAL_TIME ( 9, 30, 56.00000000000000000, #72 ) ;
#172 = APPLICATION_PROTOCOL_DEFINITION ( 'international standard', 'config_control_design', 1994, #149 ) ;
#173 = EDGE_CURVE ( 'NONE', #180, #32, #46, .T. ) ;
#174 = CIRCLE ( 'NONE', #41, 12.99999999999999800 ) ;
#175 = COORDINATED_UNIVERSAL_TIME_OFFSET ( 1, 0, .AHEAD. ) ;
#176 = MANIFOLD_SOLID_BREP ( 'Révolution2', #101 ) ;
#177 = DIRECTION ( 'NONE',  ( -1.000000000000000000, 1.224646799147353200E-016, 1.451436271862072900E-047 ) ) ;
#178 = CARTESIAN_POINT ( 'NONE',  ( -1.592040838891559100E-015, -12.99999999999999800, 0.0000000000000000000 ) ) ;
#179 = CARTESIAN_POINT ( 'NONE',  ( -24.99999999999999600, 0.0000000000000000000, 200.0000000000000000 ) ) ;
#180 = VERTEX_POINT ( 'NONE', #179 ) ;
#181 = ORIENTED_EDGE ( 'NONE', *, *, #161, .F. ) ;
#182 = DIRECTION ( 'NONE',  ( 1.000000000000000000, 0.0000000000000000000, 0.0000000000000000000 ) ) ;
#183 = CARTESIAN_POINT ( 'NONE',  ( 0.0000000000000000000, 0.0000000000000000000, 0.0000000000000000000 ) ) ;
#184 = ADVANCED_BREP_SHAPE_REPRESENTATION ( 'BrasBas_Micro_Un_sldprt', ( #176, #96 ), #62 ) ;
#185 = AXIS2_PLACEMENT_3D ( 'NONE', #220, #86, #206 ) ;
#186 = ORIENTED_EDGE ( 'NONE', *, *, #37, .T. ) ;
#187 = AXIS2_PLACEMENT_3D ( 'NONE', #145, #177, #225 ) ;
#188 = FACE_OUTER_BOUND ( 'NONE', #38, .T. ) ;
#189 = APPROVAL_PERSON_ORGANIZATION ( #50, #208, #109 ) ;
#190 = EDGE_CURVE ( 'NONE', #32, #7, #69, .T. ) ;
#191 = ORIENTED_EDGE ( 'NONE', *, *, #119, .T. ) ;
#192 = DIRECTION ( 'NONE',  ( -1.000000000000000000, 0.0000000000000000000, 0.0000000000000000000 ) ) ;
#193 = APPROVAL_PERSON_ORGANIZATION ( #169, #48, #74 ) ;
#194 = APPROVAL_DATE_TIME ( #64, #23 ) ;
#195 = PLANE ( 'NONE',  #125 ) ;
#196 = DIRECTION ( 'NONE',  ( 1.000000000000000000, 0.0000000000000000000, 0.0000000000000000000 ) ) ;
#197 = DIRECTION ( 'NONE',  ( -1.000000000000000000, 0.0000000000000000000, 0.0000000000000000000 ) ) ;
#198 = PERSON_AND_ORGANIZATION_ROLE ( 'classification_officer' ) ;
#199 = PRODUCT_DEFINITION_FORMATION_WITH_SPECIFIED_SOURCE ( 'ANY', '', #16, .NOT_KNOWN. ) ;
#200 = PERSON_AND_ORGANIZATION_ROLE ( 'design_owner' ) ;
#201 = CC_DESIGN_DATE_AND_TIME_ASSIGNMENT ( #100, #94, ( #138 ) ) ;
#202 = EDGE_LOOP ( 'NONE', ( #120, #49, #191 ) ) ;
#203 = CIRCLE ( 'NONE', #152, 24.99999999999999600 ) ;
#204 = AXIS2_PLACEMENT_3D ( 'NONE', #142, #27, #221 ) ;
#205 = SHAPE_DEFINITION_REPRESENTATION ( #3, #184 ) ;
#206 = DIRECTION ( 'NONE',  ( -1.000000000000000000, 0.0000000000000000000, 0.0000000000000000000 ) ) ;
#207 = LOCAL_TIME ( 9, 30, 56.00000000000000000, #6 ) ;
#208 = APPROVAL ( #70, 'UNSPECIFIED' ) ;
#209 = DIRECTION ( 'NONE',  ( 1.000000000000000000, 0.0000000000000000000, -0.0000000000000000000 ) ) ;
#210 = CARTESIAN_POINT ( 'NONE',  ( 0.0000000000000000000, 0.0000000000000000000, 200.0000000000000000 ) ) ;
#211 = CARTESIAN_POINT ( 'NONE',  ( 0.0000000000000000000, 0.0000000000000000000, 0.0000000000000000000 ) ) ;
#212 = CARTESIAN_POINT ( 'NONE',  ( 0.0000000000000000000, 0.0000000000000000000, 0.0000000000000000000 ) ) ;
#213 = CC_DESIGN_PERSON_AND_ORGANIZATION_ASSIGNMENT ( #93, #36, ( #199 ) ) ;
#214 = DIRECTION ( 'NONE',  ( 1.000000000000000000, 0.0000000000000000000, 0.0000000000000000000 ) ) ;
#215 = EDGE_LOOP ( 'NONE', ( #68, #163, #84, #1 ) ) ;
#216 = CC_DESIGN_DATE_AND_TIME_ASSIGNMENT ( #58, #130, ( #39 ) ) ;
#217 = FACE_OUTER_BOUND ( 'NONE', #157, .T. ) ;
#218 = EDGE_LOOP ( 'NONE', ( #150, #5 ) ) ;
#219 = FACE_OUTER_BOUND ( 'NONE', #202, .T. ) ;
#220 = CARTESIAN_POINT ( 'NONE',  ( 0.0000000000000000000, 0.0000000000000000000, 200.0000000000000000 ) ) ;
#221 = DIRECTION ( 'NONE',  ( -1.000000000000000000, 0.0000000000000000000, 0.0000000000000000000 ) ) ;
#222 = DIRECTION ( 'NONE',  ( -0.0000000000000000000, -0.0000000000000000000, -1.000000000000000000 ) ) ;
#223 = CARTESIAN_POINT ( 'NONE',  ( 0.0000000000000000000, 12.99999999999999800, 0.0000000000000000000 ) ) ;
#224 = ORGANIZATION ( 'UNSPECIFIED', 'UNSPECIFIED', '' ) ;
#225 = DIRECTION ( 'NONE',  ( -1.224646799147353200E-016, -1.000000000000000000, 0.0000000000000000000 ) ) ;
#226 = CARTESIAN_POINT ( 'NONE',  ( 24.99999999999999600, 3.061616997868382600E-015, 200.0000000000000000 ) ) ;
#227 = ORIENTED_EDGE ( 'NONE', *, *, #190, .F. ) ;
#228 = SECURITY_CLASSIFICATION_LEVEL ( 'unclassified' ) ;
#229 = CARTESIAN_POINT ( 'NONE',  ( 0.0000000000000000000, 0.0000000000000000000, 0.0000000000000000000 ) ) ;
#230 = APPROVAL_ROLE ( '' ) ;
#231 = FACE_OUTER_BOUND ( 'NONE', #215, .T. ) ;
ENDSEC;
END-ISO-10303-21;
