ISO-10303-21;
HEADER;
FILE_DESCRIPTION (( 'STEP AP203' ),
    '1' );
FILE_NAME ('Base_Défaut_sldprt.STEP',
    '2018-04-10T07:30:23',
    ( '' ),
    ( '' ),
    'SwSTEP 2.0',
    'SolidWorks 2017',
    '' );
FILE_SCHEMA (( 'CONFIG_CONTROL_DESIGN' ));
ENDSEC;

DATA;
#1 = VERTEX_POINT ( 'NONE', #102 ) ;
#2 = DIRECTION ( 'NONE',  ( 0.0000000000000000000, 0.0000000000000000000, 1.000000000000000000 ) ) ;
#3 = DIRECTION ( 'NONE',  ( -1.000000000000000000, 0.0000000000000000000, 0.0000000000000000000 ) ) ;
#4 = LOCAL_TIME ( 9, 30, 23.00000000000000000, #226 ) ;
#5 = ORIENTED_EDGE ( 'NONE', *, *, #103, .T. ) ;
#6 = DIRECTION ( 'NONE',  ( 1.000000000000000000, 0.0000000000000000000, 0.0000000000000000000 ) ) ;
#7 = DIRECTION ( 'NONE',  ( -0.0000000000000000000, -0.0000000000000000000, -1.000000000000000000 ) ) ;
#8 = EDGE_CURVE ( 'NONE', #1, #247, #176, .T. ) ;
#9 = ORIENTED_EDGE ( 'NONE', *, *, #140, .T. ) ;
#10 = ORIENTED_EDGE ( 'NONE', *, *, #242, .T. ) ;
#11 = APPLICATION_CONTEXT ( 'configuration controlled 3d designs of mechanical parts and assemblies' ) ;
#12 = CALENDAR_DATE ( 2018, 10, 4 ) ;
#13 = PERSON_AND_ORGANIZATION_ROLE ( 'design_owner' ) ;
#14 = ORIENTED_EDGE ( 'NONE', *, *, #38, .T. ) ;
#15 = MANIFOLD_SOLID_BREP ( 'Boss.-Extru.1', #206 ) ;
#16 = ORIENTED_EDGE ( 'NONE', *, *, #8, .F. ) ;
#17 = CC_DESIGN_DATE_AND_TIME_ASSIGNMENT ( #151, #73, ( #41 ) ) ;
#18 = VERTEX_POINT ( 'NONE', #125 ) ;
#19 = APPROVAL_PERSON_ORGANIZATION ( #21, #85, #116 ) ;
#20 = ORIENTED_EDGE ( 'NONE', *, *, #231, .T. ) ;
#21 = PERSON_AND_ORGANIZATION ( #162, #78 ) ;
#22 = EDGE_LOOP ( 'NONE', ( #213, #42 ) ) ;
#23 = DIRECTION ( 'NONE',  ( 0.0000000000000000000, 0.0000000000000000000, 1.000000000000000000 ) ) ;
#24 = CARTESIAN_POINT ( 'NONE',  ( 0.0000000000000000000, 0.0000000000000000000, 0.0000000000000000000 ) ) ;
#25 = FACE_OUTER_BOUND ( 'NONE', #156, .T. ) ;
#26 = ORIENTED_EDGE ( 'NONE', *, *, #107, .F. ) ;
#27 = CARTESIAN_POINT ( 'NONE',  ( 0.0000000000000000000, 0.0000000000000000000, 0.0000000000000000000 ) ) ;
#28 = PERSON_AND_ORGANIZATION_ROLE ( 'creator' ) ;
#29 = CC_DESIGN_DATE_AND_TIME_ASSIGNMENT ( #43, #187, ( #81 ) ) ;
#30 = ORIENTED_EDGE ( 'NONE', *, *, #242, .F. ) ;
#31 = SECURITY_CLASSIFICATION_LEVEL ( 'unclassified' ) ;
#32 = DIRECTION ( 'NONE',  ( 1.000000000000000000, 0.0000000000000000000, 0.0000000000000000000 ) ) ;
#33 = CALENDAR_DATE ( 2018, 10, 4 ) ;
#34 = CIRCLE ( 'NONE', #158, 75.00000000000001400 ) ;
#35 = VERTEX_POINT ( 'NONE', #232 ) ;
#36 = FACE_BOUND ( 'NONE', #64, .T. ) ;
#37 = AXIS2_PLACEMENT_3D ( 'NONE', #86, #144, #181 ) ;
#38 = EDGE_CURVE ( 'NONE', #18, #247, #34, .T. ) ;
#39 = CYLINDRICAL_SURFACE ( 'NONE', #54, 175.0000000000000000 ) ;
#40 = CIRCLE ( 'NONE', #163, 75.00000000000001400 ) ;
#41 = PRODUCT_DEFINITION ( 'UNKNOWN', '', #87, #55 ) ;
#42 = ORIENTED_EDGE ( 'NONE', *, *, #119, .F. ) ;
#43 = DATE_AND_TIME ( #33, #159 ) ;
#44 = CARTESIAN_POINT ( 'NONE',  ( 175.0000000000000000, 2.143131898507867900E-014, 10.00000000000000000 ) ) ;
#45 = CARTESIAN_POINT ( 'NONE',  ( 0.0000000000000000000, 0.0000000000000000000, 0.0000000000000000000 ) ) ;
#46 = DIRECTION ( 'NONE',  ( 0.0000000000000000000, 0.0000000000000000000, 1.000000000000000000 ) ) ;
#47 = PRODUCT_RELATED_PRODUCT_CATEGORY ( 'detail', '', ( #134 ) ) ;
#48 = DIRECTION ( 'NONE',  ( -1.000000000000000000, 0.0000000000000000000, 0.0000000000000000000 ) ) ;
#49 = FACE_OUTER_BOUND ( 'NONE', #114, .T. ) ;
#50 = COORDINATED_UNIVERSAL_TIME_OFFSET ( 1, 0, .AHEAD. ) ;
#51 = LINE ( 'NONE', #129, #198 ) ;
#52 = DATE_AND_TIME ( #145, #4 ) ;
#53 = ORIENTED_EDGE ( 'NONE', *, *, #84, .T. ) ;
#54 = AXIS2_PLACEMENT_3D ( 'NONE', #101, #179, #127 ) ;
#55 = DESIGN_CONTEXT ( 'detailed design', #11, 'design' ) ;
#56 = SHAPE_DEFINITION_REPRESENTATION ( #58, #67 ) ;
#57 = AXIS2_PLACEMENT_3D ( 'NONE', #24, #184, #32 ) ;
#58 = PRODUCT_DEFINITION_SHAPE ( 'NONE', 'NONE',  #41 ) ;
#59 = DIRECTION ( 'NONE',  ( 0.0000000000000000000, 0.0000000000000000000, 1.000000000000000000 ) ) ;
#60 = DIRECTION ( 'NONE',  ( -0.0000000000000000000, -0.0000000000000000000, -1.000000000000000000 ) ) ;
#61 = DATE_AND_TIME ( #168, #117 ) ;
#62 = COORDINATED_UNIVERSAL_TIME_OFFSET ( 1, 0, .AHEAD. ) ;
#63 = CC_DESIGN_SECURITY_CLASSIFICATION ( #81, ( #87 ) ) ;
#64 = EDGE_LOOP ( 'NONE', ( #243, #92 ) ) ;
#65 =( LENGTH_UNIT ( ) NAMED_UNIT ( * ) SI_UNIT ( .MILLI., .METRE. ) );
#66 = AXIS2_PLACEMENT_3D ( 'NONE', #197, #108, #236 ) ;
#67 = ADVANCED_BREP_SHAPE_REPRESENTATION ( 'Base_DÚfaut_sldprt', ( #15, #57 ), #173 ) ;
#68 = DIRECTION ( 'NONE',  ( 1.000000000000000000, 0.0000000000000000000, 0.0000000000000000000 ) ) ;
#69 = LOCAL_TIME ( 9, 30, 23.00000000000000000, #50 ) ;
#70 = CARTESIAN_POINT ( 'NONE',  ( 75.00000000000001400, 9.184850993605150300E-015, 10.00000000000000000 ) ) ;
#71 = CYLINDRICAL_SURFACE ( 'NONE', #115, 175.0000000000000000 ) ;
#72 = APPROVAL_ROLE ( '' ) ;
#73 = DATE_TIME_ROLE ( 'creation_date' ) ;
#74 = AXIS2_PLACEMENT_3D ( 'NONE', #27, #152, #6 ) ;
#75 = APPROVAL_DATE_TIME ( #61, #110 ) ;
#76 = CALENDAR_DATE ( 2018, 10, 4 ) ;
#77 = ORIENTED_EDGE ( 'NONE', *, *, #193, .F. ) ;
#78 = ORGANIZATION ( 'UNSPECIFIED', 'UNSPECIFIED', '' ) ;
#79 = VERTEX_POINT ( 'NONE', #148 ) ;
#80 = ORIENTED_EDGE ( 'NONE', *, *, #113, .F. ) ;
#81 = SECURITY_CLASSIFICATION ( '', '', #31 ) ;
#82 = ADVANCED_FACE ( 'NONE', ( #49 ), #154, .F. ) ;
#83 = ORIENTED_EDGE ( 'NONE', *, *, #193, .T. ) ;
#84 = EDGE_CURVE ( 'NONE', #1, #230, #40, .T. ) ;
#85 = APPROVAL ( #161, 'UNSPECIFIED' ) ;
#86 = CARTESIAN_POINT ( 'NONE',  ( 0.0000000000000000000, 0.0000000000000000000, 10.00000000000000000 ) ) ;
#87 = PRODUCT_DEFINITION_FORMATION_WITH_SPECIFIED_SOURCE ( 'ANY', '', #134, .NOT_KNOWN. ) ;
#88 = CARTESIAN_POINT ( 'NONE',  ( 0.0000000000000000000, 0.0000000000000000000, 10.00000000000000000 ) ) ;
#89 = DIRECTION ( 'NONE',  ( -0.0000000000000000000, -0.0000000000000000000, -1.000000000000000000 ) ) ;
#90 = DIRECTION ( 'NONE',  ( 1.000000000000000000, 0.0000000000000000000, 0.0000000000000000000 ) ) ;
#91 = CIRCLE ( 'NONE', #126, 75.00000000000001400 ) ;
#92 = ORIENTED_EDGE ( 'NONE', *, *, #231, .F. ) ;
#93 = CARTESIAN_POINT ( 'NONE',  ( -175.0000000000000000, 0.0000000000000000000, 0.0000000000000000000 ) ) ;
#94 = APPLICATION_PROTOCOL_DEFINITION ( 'international standard', 'config_control_design', 1994, #133 ) ;
#95 = PERSON_AND_ORGANIZATION_ROLE ( 'design_supplier' ) ;
#96 = CC_DESIGN_PERSON_AND_ORGANIZATION_ASSIGNMENT ( #185, #95, ( #87 ) ) ;
#97 = CC_DESIGN_PERSON_AND_ORGANIZATION_ASSIGNMENT ( #248, #175, ( #81 ) ) ;
#98 = ADVANCED_FACE ( 'NONE', ( #196 ), #39, .T. ) ;
#99 = CIRCLE ( 'NONE', #66, 175.0000000000000000 ) ;
#100 = VECTOR ( 'NONE', #60, 1000.000000000000000 ) ;
#101 = CARTESIAN_POINT ( 'NONE',  ( 0.0000000000000000000, 0.0000000000000000000, 10.00000000000000000 ) ) ;
#102 = CARTESIAN_POINT ( 'NONE',  ( -75.00000000000001400, 0.0000000000000000000, 10.00000000000000000 ) ) ;
#103 = EDGE_CURVE ( 'NONE', #247, #18, #91, .T. ) ;
#104 = ORIENTED_EDGE ( 'NONE', *, *, #140, .F. ) ;
#105 = ORIENTED_EDGE ( 'NONE', *, *, #103, .F. ) ;
#106 = DIRECTION ( 'NONE',  ( -0.0000000000000000000, -0.0000000000000000000, -1.000000000000000000 ) ) ;
#107 = EDGE_CURVE ( 'NONE', #79, #239, #167, .T. ) ;
#108 = DIRECTION ( 'NONE',  ( 0.0000000000000000000, 0.0000000000000000000, 1.000000000000000000 ) ) ;
#109 = CIRCLE ( 'NONE', #218, 175.0000000000000000 ) ;
#110 = APPROVAL ( #219, 'UNSPECIFIED' ) ;
#111 = PLANE ( 'NONE',  #207 ) ;
#112 = CARTESIAN_POINT ( 'NONE',  ( 0.0000000000000000000, 0.0000000000000000000, 10.00000000000000000 ) ) ;
#113 = EDGE_CURVE ( 'NONE', #128, #79, #109, .T. ) ;
#114 = EDGE_LOOP ( 'NONE', ( #53, #83, #105, #16 ) ) ;
#115 = AXIS2_PLACEMENT_3D ( 'NONE', #215, #131, #48 ) ;
#116 = APPROVAL_ROLE ( '' ) ;
#117 = LOCAL_TIME ( 9, 30, 23.00000000000000000, #139 ) ;
#118 = EDGE_LOOP ( 'NONE', ( #5, #14 ) ) ;
#119 = EDGE_CURVE ( 'NONE', #35, #239, #124, .T. ) ;
#120 = EDGE_LOOP ( 'NONE', ( #80, #9, #192, #26 ) ) ;
#121 = AXIS2_PLACEMENT_3D ( 'NONE', #112, #149, #241 ) ;
#122 = CARTESIAN_POINT ( 'NONE',  ( 0.0000000000000000000, 0.0000000000000000000, 10.00000000000000000 ) ) ;
#123 = PERSON_AND_ORGANIZATION ( #162, #78 ) ;
#124 = CIRCLE ( 'NONE', #74, 175.0000000000000000 ) ;
#125 = CARTESIAN_POINT ( 'NONE',  ( 75.00000000000001400, 9.184850993605150300E-015, 0.0000000000000000000 ) ) ;
#126 = AXIS2_PLACEMENT_3D ( 'NONE', #45, #150, #90 ) ;
#127 = DIRECTION ( 'NONE',  ( -1.000000000000000000, 0.0000000000000000000, 0.0000000000000000000 ) ) ;
#128 = VERTEX_POINT ( 'NONE', #44 ) ;
#129 = CARTESIAN_POINT ( 'NONE',  ( 175.0000000000000000, 2.143131898507867900E-014, 10.00000000000000000 ) ) ;
#130 =( NAMED_UNIT ( * ) PLANE_ANGLE_UNIT ( ) SI_UNIT ( $, .RADIAN. ) );
#131 = DIRECTION ( 'NONE',  ( -0.0000000000000000000, -0.0000000000000000000, -1.000000000000000000 ) ) ;
#132 = APPROVAL ( #136, 'UNSPECIFIED' ) ;
#133 = APPLICATION_CONTEXT ( 'configuration controlled 3d designs of mechanical parts and assemblies' ) ;
#134 = PRODUCT ( 'Base_Défaut_sldprt', 'Base_Défaut_sldprt', '', ( #135 ) ) ;
#135 = MECHANICAL_CONTEXT ( 'NONE', #133, 'mechanical' ) ;
#136 = APPROVAL_STATUS ( 'not_yet_approved' ) ;
#137 = CC_DESIGN_PERSON_AND_ORGANIZATION_ASSIGNMENT ( #166, #13, ( #134 ) ) ;
#138 = CIRCLE ( 'NONE', #121, 75.00000000000001400 ) ;
#139 = COORDINATED_UNIVERSAL_TIME_OFFSET ( 1, 0, .AHEAD. ) ;
#140 = EDGE_CURVE ( 'NONE', #128, #35, #51, .T. ) ;
#141 = COORDINATED_UNIVERSAL_TIME_OFFSET ( 1, 0, .AHEAD. ) ;
#142 = CARTESIAN_POINT ( 'NONE',  ( 0.0000000000000000000, 0.0000000000000000000, 0.0000000000000000000 ) ) ;
#143 = CC_DESIGN_APPROVAL ( #110, ( #81 ) ) ;
#144 = DIRECTION ( 'NONE',  ( -0.0000000000000000000, -0.0000000000000000000, -1.000000000000000000 ) ) ;
#145 = CALENDAR_DATE ( 2018, 10, 4 ) ;
#146 = FACE_OUTER_BOUND ( 'NONE', #164, .T. ) ;
#147 = DIRECTION ( 'NONE',  ( 1.000000000000000000, 0.0000000000000000000, 0.0000000000000000000 ) ) ;
#148 = CARTESIAN_POINT ( 'NONE',  ( -175.0000000000000000, 0.0000000000000000000, 10.00000000000000000 ) ) ;
#149 = DIRECTION ( 'NONE',  ( 0.0000000000000000000, 0.0000000000000000000, 1.000000000000000000 ) ) ;
#150 = DIRECTION ( 'NONE',  ( 0.0000000000000000000, 0.0000000000000000000, 1.000000000000000000 ) ) ;
#151 = DATE_AND_TIME ( #12, #69 ) ;
#152 = DIRECTION ( 'NONE',  ( 0.0000000000000000000, 0.0000000000000000000, 1.000000000000000000 ) ) ;
#153 = CARTESIAN_POINT ( 'NONE',  ( -175.0000000000000000, 0.0000000000000000000, 10.00000000000000000 ) ) ;
#154 = CYLINDRICAL_SURFACE ( 'NONE', #37, 75.00000000000001400 ) ;
#155 = ORIENTED_EDGE ( 'NONE', *, *, #8, .T. ) ;
#156 = EDGE_LOOP ( 'NONE', ( #77, #20, #155, #174 ) ) ;
#157 = PERSON_AND_ORGANIZATION_ROLE ( 'creator' ) ;
#158 = AXIS2_PLACEMENT_3D ( 'NONE', #142, #59, #147 ) ;
#159 = LOCAL_TIME ( 9, 30, 23.00000000000000000, #141 ) ;
#160 = LINE ( 'NONE', #172, #100 ) ;
#161 = APPROVAL_STATUS ( 'not_yet_approved' ) ;
#162 = PERSON ( 'UNSPECIFIED', 'UNSPECIFIED', 'UNSPECIFIED', ('UNSPECIFIED'), ('UNSPECIFIED'), ('UNSPECIFIED') ) ;
#163 = AXIS2_PLACEMENT_3D ( 'NONE', #122, #2, #249 ) ;
#164 = EDGE_LOOP ( 'NONE', ( #10, #223 ) ) ;
#165 = ADVANCED_FACE ( 'NONE', ( #146, #36 ), #199, .T. ) ;
#166 = PERSON_AND_ORGANIZATION ( #162, #78 ) ;
#167 = LINE ( 'NONE', #153, #208 ) ;
#168 = CALENDAR_DATE ( 2018, 10, 4 ) ;
#169 = CC_DESIGN_PERSON_AND_ORGANIZATION_ASSIGNMENT ( #123, #157, ( #41 ) ) ;
#170 = DIRECTION ( 'NONE',  ( 1.000000000000000000, 0.0000000000000000000, -0.0000000000000000000 ) ) ;
#171 = CARTESIAN_POINT ( 'NONE',  ( 0.0000000000000000000, 0.0000000000000000000, 10.00000000000000000 ) ) ;
#172 = CARTESIAN_POINT ( 'NONE',  ( 75.00000000000001400, 9.184850993605150300E-015, 10.00000000000000000 ) ) ;
#173 =( GEOMETRIC_REPRESENTATION_CONTEXT ( 3 ) GLOBAL_UNCERTAINTY_ASSIGNED_CONTEXT ( ( #210 ) ) GLOBAL_UNIT_ASSIGNED_CONTEXT ( ( #65, #130, #221 ) ) REPRESENTATION_CONTEXT ( 'NONE', 'WORKASPACE' ) );
#174 = ORIENTED_EDGE ( 'NONE', *, *, #38, .F. ) ;
#175 = PERSON_AND_ORGANIZATION_ROLE ( 'classification_officer' ) ;
#176 = LINE ( 'NONE', #209, #201 ) ;
#177 = CC_DESIGN_APPROVAL ( #132, ( #87 ) ) ;
#178 = CC_DESIGN_APPROVAL ( #85, ( #41 ) ) ;
#179 = DIRECTION ( 'NONE',  ( -0.0000000000000000000, -0.0000000000000000000, -1.000000000000000000 ) ) ;
#180 = PERSON_AND_ORGANIZATION ( #162, #78 ) ;
#181 = DIRECTION ( 'NONE',  ( -1.000000000000000000, 0.0000000000000000000, 0.0000000000000000000 ) ) ;
#182 = CARTESIAN_POINT ( 'NONE',  ( 0.0000000000000000000, 0.0000000000000000000, 10.00000000000000000 ) ) ;
#183 = CARTESIAN_POINT ( 'NONE',  ( 0.0000000000000000000, 0.0000000000000000000, 0.0000000000000000000 ) ) ;
#184 = DIRECTION ( 'NONE',  ( 0.0000000000000000000, 0.0000000000000000000, 1.000000000000000000 ) ) ;
#185 = PERSON_AND_ORGANIZATION ( #162, #78 ) ;
#186 = CYLINDRICAL_SURFACE ( 'NONE', #224, 75.00000000000001400 ) ;
#187 = DATE_TIME_ROLE ( 'classification_date' ) ;
#188 = AXIS2_PLACEMENT_3D ( 'NONE', #183, #200, #216 ) ;
#189 = APPROVAL_ROLE ( '' ) ;
#190 = APPROVAL_PERSON_ORGANIZATION ( #237, #132, #72 ) ;
#191 = FACE_BOUND ( 'NONE', #118, .T. ) ;
#192 = ORIENTED_EDGE ( 'NONE', *, *, #119, .T. ) ;
#193 = EDGE_CURVE ( 'NONE', #230, #18, #160, .T. ) ;
#194 = ADVANCED_FACE ( 'NONE', ( #238 ), #71, .T. ) ;
#195 = APPROVAL_DATE_TIME ( #52, #132 ) ;
#196 = FACE_OUTER_BOUND ( 'NONE', #205, .T. ) ;
#197 = CARTESIAN_POINT ( 'NONE',  ( 0.0000000000000000000, 0.0000000000000000000, 10.00000000000000000 ) ) ;
#198 = VECTOR ( 'NONE', #106, 1000.000000000000000 ) ;
#199 = PLANE ( 'NONE',  #246 ) ;
#200 = DIRECTION ( 'NONE',  ( 0.0000000000000000000, 0.0000000000000000000, 1.000000000000000000 ) ) ;
#201 = VECTOR ( 'NONE', #233, 1000.000000000000000 ) ;
#202 = PERSON_AND_ORGANIZATION ( #162, #78 ) ;
#203 = ADVANCED_FACE ( 'NONE', ( #25 ), #186, .F. ) ;
#204 = ORIENTED_EDGE ( 'NONE', *, *, #107, .T. ) ;
#205 = EDGE_LOOP ( 'NONE', ( #104, #30, #204, #227 ) ) ;
#206 = CLOSED_SHELL ( 'NONE', ( #82, #194, #165, #225, #98, #203 ) ) ;
#207 = AXIS2_PLACEMENT_3D ( 'NONE', #240, #46, #235 ) ;
#208 = VECTOR ( 'NONE', #7, 1000.000000000000000 ) ;
#209 = CARTESIAN_POINT ( 'NONE',  ( -75.00000000000001400, 0.0000000000000000000, 10.00000000000000000 ) ) ;
#210 = UNCERTAINTY_MEASURE_WITH_UNIT (LENGTH_MEASURE( 1.000000000000000100E-005 ), #65, 'distance_accuracy_value', 'NONE');
#211 = EDGE_CURVE ( 'NONE', #239, #35, #229, .T. ) ;
#212 = CARTESIAN_POINT ( 'NONE',  ( -75.00000000000001400, 0.0000000000000000000, 0.0000000000000000000 ) ) ;
#213 = ORIENTED_EDGE ( 'NONE', *, *, #211, .F. ) ;
#214 = DIRECTION ( 'NONE',  ( 0.0000000000000000000, 0.0000000000000000000, 1.000000000000000000 ) ) ;
#215 = CARTESIAN_POINT ( 'NONE',  ( 0.0000000000000000000, 0.0000000000000000000, 10.00000000000000000 ) ) ;
#216 = DIRECTION ( 'NONE',  ( 1.000000000000000000, 0.0000000000000000000, 0.0000000000000000000 ) ) ;
#217 = DATE_AND_TIME ( #76, #220 ) ;
#218 = AXIS2_PLACEMENT_3D ( 'NONE', #171, #214, #68 ) ;
#219 = APPROVAL_STATUS ( 'not_yet_approved' ) ;
#220 = LOCAL_TIME ( 9, 30, 23.00000000000000000, #62 ) ;
#221 =( NAMED_UNIT ( * ) SI_UNIT ( $, .STERADIAN. ) SOLID_ANGLE_UNIT ( ) );
#222 = APPLICATION_PROTOCOL_DEFINITION ( 'international standard', 'config_control_design', 1994, #11 ) ;
#223 = ORIENTED_EDGE ( 'NONE', *, *, #113, .T. ) ;
#224 = AXIS2_PLACEMENT_3D ( 'NONE', #182, #89, #3 ) ;
#225 = ADVANCED_FACE ( 'NONE', ( #245, #191 ), #111, .F. ) ;
#226 = COORDINATED_UNIVERSAL_TIME_OFFSET ( 1, 0, .AHEAD. ) ;
#227 = ORIENTED_EDGE ( 'NONE', *, *, #211, .T. ) ;
#228 = APPROVAL_PERSON_ORGANIZATION ( #180, #110, #189 ) ;
#229 = CIRCLE ( 'NONE', #188, 175.0000000000000000 ) ;
#230 = VERTEX_POINT ( 'NONE', #70 ) ;
#231 = EDGE_CURVE ( 'NONE', #230, #1, #138, .T. ) ;
#232 = CARTESIAN_POINT ( 'NONE',  ( 175.0000000000000000, 2.143131898507867900E-014, 0.0000000000000000000 ) ) ;
#233 = DIRECTION ( 'NONE',  ( -0.0000000000000000000, -0.0000000000000000000, -1.000000000000000000 ) ) ;
#234 = CC_DESIGN_PERSON_AND_ORGANIZATION_ASSIGNMENT ( #202, #28, ( #87 ) ) ;
#235 = DIRECTION ( 'NONE',  ( 1.000000000000000000, 0.0000000000000000000, -0.0000000000000000000 ) ) ;
#236 = DIRECTION ( 'NONE',  ( 1.000000000000000000, 0.0000000000000000000, 0.0000000000000000000 ) ) ;
#237 = PERSON_AND_ORGANIZATION ( #162, #78 ) ;
#238 = FACE_OUTER_BOUND ( 'NONE', #120, .T. ) ;
#239 = VERTEX_POINT ( 'NONE', #93 ) ;
#240 = CARTESIAN_POINT ( 'NONE',  ( 0.0000000000000000000, 0.0000000000000000000, 0.0000000000000000000 ) ) ;
#241 = DIRECTION ( 'NONE',  ( 1.000000000000000000, 0.0000000000000000000, 0.0000000000000000000 ) ) ;
#242 = EDGE_CURVE ( 'NONE', #79, #128, #99, .T. ) ;
#243 = ORIENTED_EDGE ( 'NONE', *, *, #84, .F. ) ;
#244 = APPROVAL_DATE_TIME ( #217, #85 ) ;
#245 = FACE_OUTER_BOUND ( 'NONE', #22, .T. ) ;
#246 = AXIS2_PLACEMENT_3D ( 'NONE', #88, #23, #170 ) ;
#247 = VERTEX_POINT ( 'NONE', #212 ) ;
#248 = PERSON_AND_ORGANIZATION ( #162, #78 ) ;
#249 = DIRECTION ( 'NONE',  ( 1.000000000000000000, 0.0000000000000000000, 0.0000000000000000000 ) ) ;
ENDSEC;
END-ISO-10303-21;
