ISO-10303-21;
HEADER;
FILE_DESCRIPTION (( 'STEP AP203' ),
    '1' );
FILE_NAME ('SupportBrasBas_Défaut_sldprt.STEP',
    '2018-04-10T07:33:56',
    ( '' ),
    ( '' ),
    'SwSTEP 2.0',
    'SolidWorks 2017',
    '' );
FILE_SCHEMA (( 'CONFIG_CONTROL_DESIGN' ));
ENDSEC;

DATA;
#1 = AXIS2_PLACEMENT_3D ( 'NONE', #229, #111, #200 ) ;
#2 = CC_DESIGN_DATE_AND_TIME_ASSIGNMENT ( #228, #31, ( #55 ) ) ;
#3 = CALENDAR_DATE ( 2018, 10, 4 ) ;
#4 = DIRECTION ( 'NONE',  ( -1.000000000000000000, 9.637352644315588800E-016, 0.0000000000000000000 ) ) ;
#5 = CIRCLE ( 'NONE', #100, 8.000000000000003600 ) ;
#6 = FACE_OUTER_BOUND ( 'NONE', #184, .T. ) ;
#7 = DIRECTION ( 'NONE',  ( -1.000000000000000000, 9.757819552369536000E-016, 0.0000000000000000000 ) ) ;
#8 = CARTESIAN_POINT ( 'NONE',  ( -9.000000000000000000, 1.000000000000008700, 0.0000000000000000000 ) ) ;
#9 = ORIENTED_EDGE ( 'NONE', *, *, #150, .F. ) ;
#10 = DIRECTION ( 'NONE',  ( -1.000000000000000000, 9.547873953712950900E-016, 0.0000000000000000000 ) ) ;
#11 = PERSON_AND_ORGANIZATION_ROLE ( 'classification_officer' ) ;
#12 = EDGE_CURVE ( 'NONE', #169, #37, #57, .T. ) ;
#13 = CALENDAR_DATE ( 2018, 10, 4 ) ;
#14 = DIRECTION ( 'NONE',  ( 9.547873953712950900E-016, 1.000000000000000000, -0.0000000000000000000 ) ) ;
#15 = ADVANCED_FACE ( 'NONE', ( #6 ), #139, .T. ) ;
#16 =( NAMED_UNIT ( * ) SI_UNIT ( $, .STERADIAN. ) SOLID_ANGLE_UNIT ( ) );
#17 = FACE_OUTER_BOUND ( 'NONE', #168, .T. ) ;
#18 = APPROVAL_DATE_TIME ( #194, #131 ) ;
#19 = VERTEX_POINT ( 'NONE', #107 ) ;
#20 = CC_DESIGN_PERSON_AND_ORGANIZATION_ASSIGNMENT ( #90, #130, ( #125 ) ) ;
#21 = DATE_AND_TIME ( #36, #26 ) ;
#22 = CIRCLE ( 'NONE', #113, 9.000000000000000000 ) ;
#23 = CARTESIAN_POINT ( 'NONE',  ( 9.547873953712950900E-016, 1.000000000000000000, 0.0000000000000000000 ) ) ;
#24 = CC_DESIGN_SECURITY_CLASSIFICATION ( #55, ( #92 ) ) ;
#25 = EDGE_LOOP ( 'NONE', ( #151, #191, #46, #141 ) ) ;
#26 = LOCAL_TIME ( 9, 33, 56.00000000000000000, #118 ) ;
#27 = EDGE_LOOP ( 'NONE', ( #222, #179, #121 ) ) ;
#28 = DIRECTION ( 'NONE',  ( 9.547873953712950900E-016, 1.000000000000000000, -0.0000000000000000000 ) ) ;
#29 = CARTESIAN_POINT ( 'NONE',  ( 4.773936976856466000E-015, 4.999999999999990200, 0.0000000000000000000 ) ) ;
#30 = CC_DESIGN_APPROVAL ( #103, ( #218 ) ) ;
#31 = DATE_TIME_ROLE ( 'classification_date' ) ;
#32 = APPROVAL_PERSON_ORGANIZATION ( #49, #131, #35 ) ;
#33 = VERTEX_POINT ( 'NONE', #106 ) ;
#34 = ORIENTED_EDGE ( 'NONE', *, *, #134, .F. ) ;
#35 = APPROVAL_ROLE ( '' ) ;
#36 = CALENDAR_DATE ( 2018, 10, 4 ) ;
#37 = VERTEX_POINT ( 'NONE', #140 ) ;
#38 = DATE_AND_TIME ( #221, #209 ) ;
#39 = ORIENTED_EDGE ( 'NONE', *, *, #87, .F. ) ;
#40 = DIRECTION ( 'NONE',  ( 9.547873953712950900E-016, 1.000000000000000000, -0.0000000000000000000 ) ) ;
#41 = AXIS2_PLACEMENT_3D ( 'NONE', #196, #127, #66 ) ;
#42 = CARTESIAN_POINT ( 'NONE',  ( -9.000000000000000000, -1.381573428524985200E-015, 0.0000000000000000000 ) ) ;
#43 = APPROVAL_PERSON_ORGANIZATION ( #217, #186, #152 ) ;
#44 = APPROVAL_PERSON_ORGANIZATION ( #104, #103, #50 ) ;
#45 = CIRCLE ( 'NONE', #199, 9.999999999999998200 ) ;
#46 = ORIENTED_EDGE ( 'NONE', *, *, #12, .F. ) ;
#47 = AXIS2_PLACEMENT_3D ( 'NONE', #53, #216, #126 ) ;
#48 = DIRECTION ( 'NONE',  ( 9.547873953712950900E-016, 1.000000000000000000, -0.0000000000000000000 ) ) ;
#49 = PERSON_AND_ORGANIZATION ( #155, #162 ) ;
#50 = APPROVAL_ROLE ( '' ) ;
#51 =( LENGTH_UNIT ( ) NAMED_UNIT ( * ) SI_UNIT ( .MILLI., .METRE. ) );
#52 = EDGE_LOOP ( 'NONE', ( #82, #34 ) ) ;
#53 = CARTESIAN_POINT ( 'NONE',  ( 0.0000000000000000000, 0.0000000000000000000, 0.0000000000000000000 ) ) ;
#54 = CALENDAR_DATE ( 2018, 10, 4 ) ;
#55 = SECURITY_CLASSIFICATION ( '', '', #213 ) ;
#56 = COORDINATED_UNIVERSAL_TIME_OFFSET ( 1, 0, .AHEAD. ) ;
#57 = CIRCLE ( 'NONE', #71, 9.000000000000005300 ) ;
#58 = EDGE_CURVE ( 'NONE', #83, #169, #109, .T. ) ;
#59 = SPHERICAL_SURFACE ( 'NONE', #136, 9.999999999999998200 ) ;
#60 = CARTESIAN_POINT ( 'NONE',  ( -9.000000000000000000, 4.999999999999998200, 0.0000000000000000000 ) ) ;
#61 = LOCAL_TIME ( 9, 33, 56.00000000000000000, #56 ) ;
#62 = DIRECTION ( 'NONE',  ( 9.547873953712950900E-016, 1.000000000000000000, -0.0000000000000000000 ) ) ;
#63 = FACE_OUTER_BOUND ( 'NONE', #52, .T. ) ;
#64 = CIRCLE ( 'NONE', #226, 9.999999999999998200 ) ;
#65 = DIRECTION ( 'NONE',  ( -1.000000000000000000, 9.547873953712950900E-016, 0.0000000000000000000 ) ) ;
#66 = DIRECTION ( 'NONE',  ( -1.000000000000000000, 9.547873953712950900E-016, 0.0000000000000000000 ) ) ;
#67 = LOCAL_TIME ( 9, 33, 56.00000000000000000, #161 ) ;
#68 = CIRCLE ( 'NONE', #153, 8.000000000000003600 ) ;
#69 = APPLICATION_CONTEXT ( 'configuration controlled 3d designs of mechanical parts and assemblies' ) ;
#70 = CC_DESIGN_PERSON_AND_ORGANIZATION_ASSIGNMENT ( #203, #154, ( #218 ) ) ;
#71 = AXIS2_PLACEMENT_3D ( 'NONE', #225, #110, #4 ) ;
#72 = CARTESIAN_POINT ( 'NONE',  ( 9.547873953712950900E-016, 1.000000000000000000, 0.0000000000000000000 ) ) ;
#73 = EDGE_CURVE ( 'NONE', #163, #164, #68, .T. ) ;
#74 = MANIFOLD_SOLID_BREP ( 'Révolution1', #93 ) ;
#75 = DIRECTION ( 'NONE',  ( 9.547873953712950900E-016, 1.000000000000000000, -0.0000000000000000000 ) ) ;
#76 = AXIS2_PLACEMENT_3D ( 'NONE', #227, #28, #65 ) ;
#77 = CARTESIAN_POINT ( 'NONE',  ( 0.0000000000000000000, 11.00000000000000000, 0.0000000000000000000 ) ) ;
#78 = CARTESIAN_POINT ( 'NONE',  ( 9.000000000000003600, 0.9999999999999913400, 1.102182119232617900E-015 ) ) ;
#79 = FACE_OUTER_BOUND ( 'NONE', #25, .T. ) ;
#80 = PERSON_AND_ORGANIZATION_ROLE ( 'design_supplier' ) ;
#81 = PLANE ( 'NONE',  #1 ) ;
#82 = ORIENTED_EDGE ( 'NONE', *, *, #120, .F. ) ;
#83 = VERTEX_POINT ( 'NONE', #42 ) ;
#84 = CC_DESIGN_DATE_AND_TIME_ASSIGNMENT ( #21, #147, ( #218 ) ) ;
#85 = DIRECTION ( 'NONE',  ( 1.224646799147353200E-016, -1.169277327607695000E-031, -1.000000000000000000 ) ) ;
#86 = ORIENTED_EDGE ( 'NONE', *, *, #73, .T. ) ;
#87 = EDGE_CURVE ( 'NONE', #164, #163, #5, .T. ) ;
#88 = DIRECTION ( 'NONE',  ( 0.0000000000000000000, -0.0000000000000000000, -1.000000000000000000 ) ) ;
#89 = LOCAL_TIME ( 9, 33, 56.00000000000000000, #137 ) ;
#90 = PERSON_AND_ORGANIZATION ( #155, #162 ) ;
#91 = DIRECTION ( 'NONE',  ( 1.000000000000000000, 0.0000000000000000000, 0.0000000000000000000 ) ) ;
#92 = PRODUCT_DEFINITION_FORMATION_WITH_SPECIFIED_SOURCE ( 'ANY', '', #125, .NOT_KNOWN. ) ;
#93 = CLOSED_SHELL ( 'NONE', ( #160, #157, #182, #219, #15, #185 ) ) ;
#94 = CYLINDRICAL_SURFACE ( 'NONE', #142, 9.000000000000001800 ) ;
#95 = PLANE ( 'NONE',  #41 ) ;
#96 = APPROVAL_STATUS ( 'not_yet_approved' ) ;
#97 = CC_DESIGN_PERSON_AND_ORGANIZATION_ASSIGNMENT ( #173, #112, ( #92 ) ) ;
#98 = APPROVAL_DATE_TIME ( #38, #186 ) ;
#99 = SPHERICAL_SURFACE ( 'NONE', #220, 9.999999999999998200 ) ;
#100 = AXIS2_PLACEMENT_3D ( 'NONE', #174, #75, #7 ) ;
#101 = ADVANCED_BREP_SHAPE_REPRESENTATION ( 'SupportBrasBas_DÚfaut_sldprt', ( #74, #47 ), #212 ) ;
#102 = VECTOR ( 'NONE', #14, 1000.000000000000000 ) ;
#103 = APPROVAL ( #197, 'UNSPECIFIED' ) ;
#104 = PERSON_AND_ORGANIZATION ( #155, #162 ) ;
#105 = ORIENTED_EDGE ( 'NONE', *, *, #58, .T. ) ;
#106 = CARTESIAN_POINT ( 'NONE',  ( 9.000000000000000000, -1.856774654520829500E-014, 1.102182119232617700E-015 ) ) ;
#107 = CARTESIAN_POINT ( 'NONE',  ( -8.935550554139273600E-015, 1.000000000000000900, 0.0000000000000000000 ) ) ;
#108 = CC_DESIGN_PERSON_AND_ORGANIZATION_ASSIGNMENT ( #117, #80, ( #92 ) ) ;
#109 = LINE ( 'NONE', #8, #145 ) ;
#110 = DIRECTION ( 'NONE',  ( 9.547873953712950900E-016, 1.000000000000000000, -0.0000000000000000000 ) ) ;
#111 = DIRECTION ( 'NONE',  ( -9.547873953712950900E-016, -1.000000000000000000, 0.0000000000000000000 ) ) ;
#112 = PERSON_AND_ORGANIZATION_ROLE ( 'creator' ) ;
#113 = AXIS2_PLACEMENT_3D ( 'NONE', #143, #40, #10 ) ;
#114 = ORIENTED_EDGE ( 'NONE', *, *, #134, .T. ) ;
#115 = DIRECTION ( 'NONE',  ( 9.547873953712950900E-016, 1.000000000000000000, -0.0000000000000000000 ) ) ;
#116 = CC_DESIGN_APPROVAL ( #186, ( #92 ) ) ;
#117 = PERSON_AND_ORGANIZATION ( #155, #162 ) ;
#118 = COORDINATED_UNIVERSAL_TIME_OFFSET ( 1, 0, .AHEAD. ) ;
#119 = CC_DESIGN_PERSON_AND_ORGANIZATION_ASSIGNMENT ( #201, #11, ( #55 ) ) ;
#120 = EDGE_CURVE ( 'NONE', #83, #33, #22, .T. ) ;
#121 = ORIENTED_EDGE ( 'NONE', *, *, #87, .T. ) ;
#122 = CARTESIAN_POINT ( 'NONE',  ( 0.0000000000000000000, 11.00000000000000000, 0.0000000000000000000 ) ) ;
#123 = PRODUCT_DEFINITION_SHAPE ( 'NONE', 'NONE',  #218 ) ;
#124 = CC_DESIGN_APPROVAL ( #131, ( #55 ) ) ;
#125 = PRODUCT ( 'SupportBrasBas_Défaut_sldprt', 'SupportBrasBas_Défaut_sldprt', '', ( #181 ) ) ;
#126 = DIRECTION ( 'NONE',  ( 1.000000000000000000, 0.0000000000000000000, 0.0000000000000000000 ) ) ;
#127 = DIRECTION ( 'NONE',  ( 9.547873953712950900E-016, 1.000000000000000000, -0.0000000000000000000 ) ) ;
#128 =( NAMED_UNIT ( * ) PLANE_ANGLE_UNIT ( ) SI_UNIT ( $, .RADIAN. ) );
#129 = ORIENTED_EDGE ( 'NONE', *, *, #193, .F. ) ;
#130 = PERSON_AND_ORGANIZATION_ROLE ( 'design_owner' ) ;
#131 = APPROVAL ( #180, 'UNSPECIFIED' ) ;
#132 = FACE_BOUND ( 'NONE', #165, .T. ) ;
#133 = FACE_OUTER_BOUND ( 'NONE', #27, .T. ) ;
#134 = EDGE_CURVE ( 'NONE', #33, #83, #158, .T. ) ;
#135 = LINE ( 'NONE', #78, #102 ) ;
#136 = AXIS2_PLACEMENT_3D ( 'NONE', #122, #189, #144 ) ;
#137 = COORDINATED_UNIVERSAL_TIME_OFFSET ( 1, 0, .AHEAD. ) ;
#138 = SHAPE_DEFINITION_REPRESENTATION ( #123, #101 ) ;
#139 = CYLINDRICAL_SURFACE ( 'NONE', #170, 9.000000000000001800 ) ;
#140 = CARTESIAN_POINT ( 'NONE',  ( 9.000000000000008900, 4.999999999999981300, 1.102182119232618700E-015 ) ) ;
#141 = ORIENTED_EDGE ( 'NONE', *, *, #58, .F. ) ;
#142 = AXIS2_PLACEMENT_3D ( 'NONE', #23, #62, #204 ) ;
#143 = CARTESIAN_POINT ( 'NONE',  ( -9.437056727497455700E-030, -9.974659986866640800E-015, 0.0000000000000000000 ) ) ;
#144 = DIRECTION ( 'NONE',  ( 1.000000000000000000, -1.040834085586084500E-015, 0.0000000000000000000 ) ) ;
#145 = VECTOR ( 'NONE', #166, 1000.000000000000000 ) ;
#146 = DIRECTION ( 'NONE',  ( 9.547873953712950900E-016, 1.000000000000000000, -0.0000000000000000000 ) ) ;
#147 = DATE_TIME_ROLE ( 'creation_date' ) ;
#148 = APPLICATION_CONTEXT ( 'configuration controlled 3d designs of mechanical parts and assemblies' ) ;
#149 = CARTESIAN_POINT ( 'NONE',  ( 4.773936976856466000E-015, 4.999999999999989300, 0.0000000000000000000 ) ) ;
#150 = EDGE_CURVE ( 'NONE', #19, #164, #64, .T. ) ;
#151 = ORIENTED_EDGE ( 'NONE', *, *, #120, .T. ) ;
#152 = APPROVAL_ROLE ( '' ) ;
#153 = AXIS2_PLACEMENT_3D ( 'NONE', #29, #146, #208 ) ;
#154 = PERSON_AND_ORGANIZATION_ROLE ( 'creator' ) ;
#155 = PERSON ( 'UNSPECIFIED', 'UNSPECIFIED', 'UNSPECIFIED', ('UNSPECIFIED'), ('UNSPECIFIED'), ('UNSPECIFIED') ) ;
#156 = FACE_OUTER_BOUND ( 'NONE', #188, .T. ) ;
#157 = ADVANCED_FACE ( 'NONE', ( #17 ), #99, .F. ) ;
#158 = CIRCLE ( 'NONE', #76, 9.000000000000000000 ) ;
#159 = UNCERTAINTY_MEASURE_WITH_UNIT (LENGTH_MEASURE( 1.000000000000000100E-005 ), #51, 'distance_accuracy_value', 'NONE');
#160 = ADVANCED_FACE ( 'NONE', ( #79 ), #94, .T. ) ;
#161 = COORDINATED_UNIVERSAL_TIME_OFFSET ( 1, 0, .AHEAD. ) ;
#162 = ORGANIZATION ( 'UNSPECIFIED', 'UNSPECIFIED', '' ) ;
#163 = VERTEX_POINT ( 'NONE', #205 ) ;
#164 = VERTEX_POINT ( 'NONE', #192 ) ;
#165 = EDGE_LOOP ( 'NONE', ( #39, #178 ) ) ;
#166 = DIRECTION ( 'NONE',  ( 9.547873953712950900E-016, 1.000000000000000000, -0.0000000000000000000 ) ) ;
#167 = CARTESIAN_POINT ( 'NONE',  ( 0.0000000000000000000, 11.00000000000000000, 0.0000000000000000000 ) ) ;
#168 = EDGE_LOOP ( 'NONE', ( #9, #214, #86 ) ) ;
#169 = VERTEX_POINT ( 'NONE', #60 ) ;
#170 = AXIS2_PLACEMENT_3D ( 'NONE', #72, #48, #175 ) ;
#171 = EDGE_CURVE ( 'NONE', #19, #163, #45, .T. ) ;
#172 = DIRECTION ( 'NONE',  ( 0.0000000000000000000, 0.0000000000000000000, 1.000000000000000000 ) ) ;
#173 = PERSON_AND_ORGANIZATION ( #155, #162 ) ;
#174 = CARTESIAN_POINT ( 'NONE',  ( 4.773936976856466000E-015, 4.999999999999990200, 0.0000000000000000000 ) ) ;
#175 = DIRECTION ( 'NONE',  ( -1.000000000000000000, 9.637352644315592800E-016, 0.0000000000000000000 ) ) ;
#176 = APPLICATION_PROTOCOL_DEFINITION ( 'international standard', 'config_control_design', 1994, #69 ) ;
#177 = COORDINATED_UNIVERSAL_TIME_OFFSET ( 1, 0, .AHEAD. ) ;
#178 = ORIENTED_EDGE ( 'NONE', *, *, #73, .F. ) ;
#179 = ORIENTED_EDGE ( 'NONE', *, *, #150, .T. ) ;
#180 = APPROVAL_STATUS ( 'not_yet_approved' ) ;
#181 = MECHANICAL_CONTEXT ( 'NONE', #148, 'mechanical' ) ;
#182 = ADVANCED_FACE ( 'NONE', ( #133 ), #59, .F. ) ;
#183 = APPROVAL_DATE_TIME ( #190, #103 ) ;
#184 = EDGE_LOOP ( 'NONE', ( #129, #114, #105, #202 ) ) ;
#185 = ADVANCED_FACE ( 'NONE', ( #156, #132 ), #95, .T. ) ;
#186 = APPROVAL ( #96, 'UNSPECIFIED' ) ;
#187 = EDGE_CURVE ( 'NONE', #37, #169, #206, .T. ) ;
#188 = EDGE_LOOP ( 'NONE', ( #198, #207 ) ) ;
#189 = DIRECTION ( 'NONE',  ( 0.0000000000000000000, -0.0000000000000000000, -1.000000000000000000 ) ) ;
#190 = DATE_AND_TIME ( #13, #61 ) ;
#191 = ORIENTED_EDGE ( 'NONE', *, *, #193, .T. ) ;
#192 = CARTESIAN_POINT ( 'NONE',  ( 7.999999999999996400, 4.999999999999983100, 0.0000000000000000000 ) ) ;
#193 = EDGE_CURVE ( 'NONE', #33, #37, #135, .T. ) ;
#194 = DATE_AND_TIME ( #3, #67 ) ;
#195 = APPLICATION_PROTOCOL_DEFINITION ( 'international standard', 'config_control_design', 1994, #148 ) ;
#196 = CARTESIAN_POINT ( 'NONE',  ( -9.000000000000000000, 4.999999999999999100, 0.0000000000000000000 ) ) ;
#197 = APPROVAL_STATUS ( 'not_yet_approved' ) ;
#198 = ORIENTED_EDGE ( 'NONE', *, *, #12, .T. ) ;
#199 = AXIS2_PLACEMENT_3D ( 'NONE', #77, #85, #210 ) ;
#200 = DIRECTION ( 'NONE',  ( 1.000000000000000000, -9.547873953712950900E-016, 0.0000000000000000000 ) ) ;
#201 = PERSON_AND_ORGANIZATION ( #155, #162 ) ;
#202 = ORIENTED_EDGE ( 'NONE', *, *, #187, .F. ) ;
#203 = PERSON_AND_ORGANIZATION ( #155, #162 ) ;
#204 = DIRECTION ( 'NONE',  ( -1.000000000000000000, 9.637352644315592800E-016, 0.0000000000000000000 ) ) ;
#205 = CARTESIAN_POINT ( 'NONE',  ( -7.999999999999996400, 4.999999999999998200, -9.797174393178815800E-016 ) ) ;
#206 = CIRCLE ( 'NONE', #231, 9.000000000000005300 ) ;
#207 = ORIENTED_EDGE ( 'NONE', *, *, #187, .T. ) ;
#208 = DIRECTION ( 'NONE',  ( -1.000000000000000000, 9.757819552369536000E-016, 0.0000000000000000000 ) ) ;
#209 = LOCAL_TIME ( 9, 33, 56.00000000000000000, #177 ) ;
#210 = DIRECTION ( 'NONE',  ( -1.000000000000000000, 0.0000000000000000000, -1.224646799147353200E-016 ) ) ;
#211 = CARTESIAN_POINT ( 'NONE',  ( 0.0000000000000000000, 11.00000000000000000, 0.0000000000000000000 ) ) ;
#212 =( GEOMETRIC_REPRESENTATION_CONTEXT ( 3 ) GLOBAL_UNCERTAINTY_ASSIGNED_CONTEXT ( ( #159 ) ) GLOBAL_UNIT_ASSIGNED_CONTEXT ( ( #51, #128, #16 ) ) REPRESENTATION_CONTEXT ( 'NONE', 'WORKASPACE' ) );
#213 = SECURITY_CLASSIFICATION_LEVEL ( 'unclassified' ) ;
#214 = ORIENTED_EDGE ( 'NONE', *, *, #171, .T. ) ;
#215 = DESIGN_CONTEXT ( 'detailed design', #69, 'design' ) ;
#216 = DIRECTION ( 'NONE',  ( 0.0000000000000000000, 0.0000000000000000000, 1.000000000000000000 ) ) ;
#217 = PERSON_AND_ORGANIZATION ( #155, #162 ) ;
#218 = PRODUCT_DEFINITION ( 'UNKNOWN', '', #92, #215 ) ;
#219 = ADVANCED_FACE ( 'NONE', ( #63 ), #81, .T. ) ;
#220 = AXIS2_PLACEMENT_3D ( 'NONE', #167, #88, #223 ) ;
#221 = CALENDAR_DATE ( 2018, 10, 4 ) ;
#222 = ORIENTED_EDGE ( 'NONE', *, *, #171, .F. ) ;
#223 = DIRECTION ( 'NONE',  ( 1.000000000000000000, -1.040834085586084500E-015, 0.0000000000000000000 ) ) ;
#224 = PRODUCT_RELATED_PRODUCT_CATEGORY ( 'detail', '', ( #125 ) ) ;
#225 = CARTESIAN_POINT ( 'NONE',  ( 4.773936976856466000E-015, 4.999999999999989300, 0.0000000000000000000 ) ) ;
#226 = AXIS2_PLACEMENT_3D ( 'NONE', #211, #172, #91 ) ;
#227 = CARTESIAN_POINT ( 'NONE',  ( -9.437056727497455700E-030, -9.974659986866640800E-015, 0.0000000000000000000 ) ) ;
#228 = DATE_AND_TIME ( #54, #89 ) ;
#229 = CARTESIAN_POINT ( 'NONE',  ( -4.756966024027268700E-030, -4.982225411739325200E-015, 0.0000000000000000000 ) ) ;
#230 = DIRECTION ( 'NONE',  ( -1.000000000000000000, 9.637352644315588800E-016, 0.0000000000000000000 ) ) ;
#231 = AXIS2_PLACEMENT_3D ( 'NONE', #149, #115, #230 ) ;
ENDSEC;
END-ISO-10303-21;
