ISO-10303-21;
HEADER;
FILE_DESCRIPTION (( 'STEP AP203' ),
    '1' );
FILE_NAME ('BrasBas_Nano_Un_sldprt.STEP',
    '2018-04-10T07:30:57',
    ( '' ),
    ( '' ),
    'SwSTEP 2.0',
    'SolidWorks 2017',
    '' );
FILE_SCHEMA (( 'CONFIG_CONTROL_DESIGN' ));
ENDSEC;

DATA;
#1 = CALENDAR_DATE ( 2018, 10, 4 ) ;
#2 = ORIENTED_EDGE ( 'NONE', *, *, #190, .F. ) ;
#3 = EDGE_CURVE ( 'NONE', #71, #290, #299, .T. ) ;
#4 = AXIS2_PLACEMENT_3D ( 'NONE', #237, #12, #100 ) ;
#5 = CARTESIAN_POINT ( 'NONE',  ( 0.0000000000000000000, 0.0000000000000000000, 70.00000000000000000 ) ) ;
#6 = VERTEX_POINT ( 'NONE', #140 ) ;
#7 = PLANE ( 'NONE',  #172 ) ;
#8 = EDGE_LOOP ( 'NONE', ( #58, #31, #252, #118 ) ) ;
#9 = PERSON ( 'UNSPECIFIED', 'UNSPECIFIED', 'UNSPECIFIED', ('UNSPECIFIED'), ('UNSPECIFIED'), ('UNSPECIFIED') ) ;
#10 = CIRCLE ( 'NONE', #137, 9.999999999999994700 ) ;
#11 = VERTEX_POINT ( 'NONE', #138 ) ;
#12 = DIRECTION ( 'NONE',  ( 0.0000000000000000000, 0.0000000000000000000, 1.000000000000000000 ) ) ;
#13 = CARTESIAN_POINT ( 'NONE',  ( 0.0000000000000000000, 0.0000000000000000000, 99.99999999999998600 ) ) ;
#14 = ADVANCED_FACE ( 'NONE', ( #86 ), #183, .T. ) ;
#15 = APPLICATION_CONTEXT ( 'configuration controlled 3d designs of mechanical parts and assemblies' ) ;
#16 = CC_DESIGN_PERSON_AND_ORGANIZATION_ASSIGNMENT ( #207, #149, ( #141 ) ) ;
#17 = APPROVAL_PERSON_ORGANIZATION ( #114, #92, #197 ) ;
#18 = ORIENTED_EDGE ( 'NONE', *, *, #255, .T. ) ;
#19 = DIRECTION ( 'NONE',  ( 1.000000000000000000, 0.0000000000000000000, 0.0000000000000000000 ) ) ;
#20 = ADVANCED_FACE ( 'NONE', ( #106 ), #153, .T. ) ;
#21 = LOCAL_TIME ( 9, 30, 57.00000000000000000, #263 ) ;
#22 = ORIENTED_EDGE ( 'NONE', *, *, #210, .T. ) ;
#23 = COORDINATED_UNIVERSAL_TIME_OFFSET ( 1, 0, .AHEAD. ) ;
#24 = SPHERICAL_SURFACE ( 'NONE', #132, 9.999999999999994700 ) ;
#25 = CIRCLE ( 'NONE', #230, 9.999999999999994700 ) ;
#26 = ORIENTED_EDGE ( 'NONE', *, *, #190, .T. ) ;
#27 = CARTESIAN_POINT ( 'NONE',  ( 0.0000000000000000000, 0.0000000000000000000, 91.33974596215560400 ) ) ;
#28 = CARTESIAN_POINT ( 'NONE',  ( -5.000000000000000000, 0.0000000000000000000, 0.0000000000000000000 ) ) ;
#29 = DIRECTION ( 'NONE',  ( -0.0000000000000000000, -0.0000000000000000000, -1.000000000000000000 ) ) ;
#30 = DATE_AND_TIME ( #98, #133 ) ;
#31 = ORIENTED_EDGE ( 'NONE', *, *, #174, .F. ) ;
#32 = PRODUCT_DEFINITION ( 'UNKNOWN', '', #199, #176 ) ;
#33 = DIRECTION ( 'NONE',  ( 1.000000000000000000, -8.881784197001258200E-016, 0.0000000000000000000 ) ) ;
#34 = AXIS2_PLACEMENT_3D ( 'NONE', #257, #283, #158 ) ;
#35 = DIRECTION ( 'NONE',  ( 0.0000000000000000000, 0.0000000000000000000, -1.000000000000000000 ) ) ;
#36 = CALENDAR_DATE ( 2018, 10, 4 ) ;
#37 = CARTESIAN_POINT ( 'NONE',  ( 0.0000000000000000000, 0.0000000000000000000, 0.0000000000000000000 ) ) ;
#38 = CIRCLE ( 'NONE', #246, 5.000000000000000000 ) ;
#39 = ORIENTED_EDGE ( 'NONE', *, *, #97, .F. ) ;
#40 = ADVANCED_FACE ( 'NONE', ( #160 ), #182, .T. ) ;
#41 = CARTESIAN_POINT ( 'NONE',  ( -5.000000000000000000, 0.0000000000000000000, 99.99999999999998600 ) ) ;
#42 = AXIS2_PLACEMENT_3D ( 'NONE', #5, #136, #188 ) ;
#43 = CARTESIAN_POINT ( 'NONE',  ( -6.123233995736756400E-016, -4.999999999999990200, 91.33974596215560400 ) ) ;
#44 = CYLINDRICAL_SURFACE ( 'NONE', #234, 4.000000000000000000 ) ;
#45 = VERTEX_POINT ( 'NONE', #212 ) ;
#46 = PERSON_AND_ORGANIZATION_ROLE ( 'creator' ) ;
#47 = APPROVAL_STATUS ( 'not_yet_approved' ) ;
#48 = APPROVAL_DATE_TIME ( #223, #126 ) ;
#49 = APPROVAL_PERSON_ORGANIZATION ( #224, #126, #90 ) ;
#50 = ADVANCED_FACE ( 'NONE', ( #101, #218 ), #7, .F. ) ;
#51 = FACE_OUTER_BOUND ( 'NONE', #240, .T. ) ;
#52 = CC_DESIGN_APPROVAL ( #126, ( #32 ) ) ;
#53 = ORIENTED_EDGE ( 'NONE', *, *, #276, .T. ) ;
#54 = VERTEX_POINT ( 'NONE', #28 ) ;
#55 = LINE ( 'NONE', #41, #181 ) ;
#56 = ORIENTED_EDGE ( 'NONE', *, *, #3, .F. ) ;
#57 = DIRECTION ( 'NONE',  ( 0.0000000000000000000, 0.0000000000000000000, -1.000000000000000000 ) ) ;
#58 = ORIENTED_EDGE ( 'NONE', *, *, #112, .F. ) ;
#59 = DIRECTION ( 'NONE',  ( 0.0000000000000000000, 0.0000000000000000000, 1.000000000000000000 ) ) ;
#60 = EDGE_CURVE ( 'NONE', #155, #213, #73, .T. ) ;
#61 = DIRECTION ( 'NONE',  ( -0.0000000000000000000, -0.0000000000000000000, -1.000000000000000000 ) ) ;
#62 = ORIENTED_EDGE ( 'NONE', *, *, #104, .T. ) ;
#63 = SECURITY_CLASSIFICATION ( '', '', #225 ) ;
#64 = CARTESIAN_POINT ( 'NONE',  ( -5.000000000000000000, 0.0000000000000000000, 91.33974596215560400 ) ) ;
#65 = DIRECTION ( 'NONE',  ( -1.000000000000000000, 0.0000000000000000000, 0.0000000000000000000 ) ) ;
#66 = EDGE_CURVE ( 'NONE', #300, #6, #282, .T. ) ;
#67 = PERSON_AND_ORGANIZATION_ROLE ( 'classification_officer' ) ;
#68 = CC_DESIGN_PERSON_AND_ORGANIZATION_ASSIGNMENT ( #278, #46, ( #32 ) ) ;
#69 = APPROVAL_ROLE ( '' ) ;
#70 = VERTEX_POINT ( 'NONE', #159 ) ;
#71 = VERTEX_POINT ( 'NONE', #81 ) ;
#72 = APPROVAL_STATUS ( 'not_yet_approved' ) ;
#73 = CIRCLE ( 'NONE', #192, 5.000000000000000000 ) ;
#74 = EDGE_LOOP ( 'NONE', ( #189, #198 ) ) ;
#75 = AXIS2_PLACEMENT_3D ( 'NONE', #286, #61, #233 ) ;
#76 = PERSON_AND_ORGANIZATION ( #9, #289 ) ;
#77 = ORIENTED_EDGE ( 'NONE', *, *, #113, .T. ) ;
#78 = DATE_AND_TIME ( #36, #244 ) ;
#79 = DIRECTION ( 'NONE',  ( 1.000000000000000000, 0.0000000000000000000, 0.0000000000000000000 ) ) ;
#80 = CARTESIAN_POINT ( 'NONE',  ( 0.0000000000000000000, 0.0000000000000000000, 99.99999999999998600 ) ) ;
#81 = CARTESIAN_POINT ( 'NONE',  ( -4.000000000000000000, 0.0000000000000000000, 70.00000000000000000 ) ) ;
#82 = ORIENTED_EDGE ( 'NONE', *, *, #3, .T. ) ;
#83 = DIRECTION ( 'NONE',  ( 1.000000000000000000, 0.0000000000000000000, -0.0000000000000000000 ) ) ;
#84 = DIRECTION ( 'NONE',  ( -1.000000000000000000, 0.0000000000000000000, 0.0000000000000000000 ) ) ;
#85 = ADVANCED_FACE ( 'NONE', ( #157 ), #258, .F. ) ;
#86 = FACE_OUTER_BOUND ( 'NONE', #148, .T. ) ;
#87 = CARTESIAN_POINT ( 'NONE',  ( 0.0000000000000000000, 0.0000000000000000000, 0.0000000000000000000 ) ) ;
#88 = COORDINATED_UNIVERSAL_TIME_OFFSET ( 1, 0, .AHEAD. ) ;
#89 = VERTEX_POINT ( 'NONE', #262 ) ;
#90 = APPROVAL_ROLE ( '' ) ;
#91 = SHAPE_DEFINITION_REPRESENTATION ( #134, #226 ) ;
#92 = APPROVAL ( #72, 'UNSPECIFIED' ) ;
#93 = APPROVAL_DATE_TIME ( #194, #92 ) ;
#94 = CALENDAR_DATE ( 2018, 10, 4 ) ;
#95 = CIRCLE ( 'NONE', #215, 5.000000000000000000 ) ;
#96 = DIRECTION ( 'NONE',  ( -1.000000000000000000, 0.0000000000000000000, 0.0000000000000000000 ) ) ;
#97 = EDGE_CURVE ( 'NONE', #213, #300, #95, .T. ) ;
#98 = CALENDAR_DATE ( 2018, 10, 4 ) ;
#99 = EDGE_LOOP ( 'NONE', ( #284, #165, #251, #39 ) ) ;
#100 = DIRECTION ( 'NONE',  ( 1.000000000000000000, 0.0000000000000000000, 0.0000000000000000000 ) ) ;
#101 = FACE_BOUND ( 'NONE', #74, .T. ) ;
#102 = CLOSED_SHELL ( 'NONE', ( #40, #130, #291, #20, #50, #85, #14, #125 ) ) ;
#103 = DIRECTION ( 'NONE',  ( -0.0000000000000000000, -0.0000000000000000000, -1.000000000000000000 ) ) ;
#104 = EDGE_CURVE ( 'NONE', #11, #70, #209, .T. ) ;
#105 = DIRECTION ( 'NONE',  ( -1.000000000000000000, 0.0000000000000000000, 0.0000000000000000000 ) ) ;
#106 = FACE_OUTER_BOUND ( 'NONE', #266, .T. ) ;
#107 = CARTESIAN_POINT ( 'NONE',  ( 0.0000000000000000000, 0.0000000000000000000, 70.00000000000000000 ) ) ;
#108 = CC_DESIGN_PERSON_AND_ORGANIZATION_ASSIGNMENT ( #76, #200, ( #199 ) ) ;
#109 = ORIENTED_EDGE ( 'NONE', *, *, #113, .F. ) ;
#110 = PERSON_AND_ORGANIZATION_ROLE ( 'design_supplier' ) ;
#111 = AXIS2_PLACEMENT_3D ( 'NONE', #260, #211, #33 ) ;
#112 = EDGE_CURVE ( 'NONE', #155, #45, #25, .T. ) ;
#113 = EDGE_CURVE ( 'NONE', #54, #89, #38, .T. ) ;
#114 = PERSON_AND_ORGANIZATION ( #9, #289 ) ;
#115 = CIRCLE ( 'NONE', #271, 4.000000000000000000 ) ;
#116 = DIRECTION ( 'NONE',  ( -1.000000000000000000, 0.0000000000000000000, 0.0000000000000000000 ) ) ;
#117 = CC_DESIGN_DATE_AND_TIME_ASSIGNMENT ( #128, #247, ( #32 ) ) ;
#118 = ORIENTED_EDGE ( 'NONE', *, *, #241, .T. ) ;
#119 = CARTESIAN_POINT ( 'NONE',  ( 4.000000000000000000, 4.898587196589412800E-016, 70.00000000000000000 ) ) ;
#120 = DIRECTION ( 'NONE',  ( -0.0000000000000000000, -0.0000000000000000000, -1.000000000000000000 ) ) ;
#121 = CC_DESIGN_PERSON_AND_ORGANIZATION_ASSIGNMENT ( #146, #67, ( #63 ) ) ;
#122 = CIRCLE ( 'NONE', #204, 4.000000000000000000 ) ;
#123 = ORIENTED_EDGE ( 'NONE', *, *, #255, .F. ) ;
#124 = DIRECTION ( 'NONE',  ( 0.0000000000000000000, 0.0000000000000000000, 1.000000000000000000 ) ) ;
#125 = ADVANCED_FACE ( 'NONE', ( #270 ), #24, .T. ) ;
#126 = APPROVAL ( #47, 'UNSPECIFIED' ) ;
#127 = DIRECTION ( 'NONE',  ( -1.224646799147353200E-016, -1.000000000000000000, 0.0000000000000000000 ) ) ;
#128 = DATE_AND_TIME ( #1, #175 ) ;
#129 = APPLICATION_CONTEXT ( 'configuration controlled 3d designs of mechanical parts and assemblies' ) ;
#130 = ADVANCED_FACE ( 'NONE', ( #195 ), #44, .F. ) ;
#131 = PERSON_AND_ORGANIZATION ( #9, #289 ) ;
#132 = AXIS2_PLACEMENT_3D ( 'NONE', #80, #239, #217 ) ;
#133 = LOCAL_TIME ( 9, 30, 57.00000000000000000, #23 ) ;
#134 = PRODUCT_DEFINITION_SHAPE ( 'NONE', 'NONE',  #32 ) ;
#135 = APPROVAL ( #273, 'UNSPECIFIED' ) ;
#136 = DIRECTION ( 'NONE',  ( 0.0000000000000000000, 0.0000000000000000000, -1.000000000000000000 ) ) ;
#137 = AXIS2_PLACEMENT_3D ( 'NONE', #219, #267, #196 ) ;
#138 = CARTESIAN_POINT ( 'NONE',  ( 4.000000000000000000, 4.898587196589412800E-016, 0.0000000000000000000 ) ) ;
#139 = CARTESIAN_POINT ( 'NONE',  ( 0.0000000000000000000, 0.0000000000000000000, 0.0000000000000000000 ) ) ;
#140 = CARTESIAN_POINT ( 'NONE',  ( 5.000000000000000000, 6.123233995736765300E-016, 91.33974596215560400 ) ) ;
#141 = PRODUCT ( 'BrasBas_Nano_Un_sldprt', 'BrasBas_Nano_Un_sldprt', '', ( #222 ) ) ;
#142 = DIRECTION ( 'NONE',  ( -0.0000000000000000000, -0.0000000000000000000, -1.000000000000000000 ) ) ;
#143 = PERSON_AND_ORGANIZATION ( #9, #289 ) ;
#144 = DIRECTION ( 'NONE',  ( -1.000000000000000000, 0.0000000000000000000, 0.0000000000000000000 ) ) ;
#145 = DIRECTION ( 'NONE',  ( -0.0000000000000000000, -0.0000000000000000000, -1.000000000000000000 ) ) ;
#146 = PERSON_AND_ORGANIZATION ( #9, #289 ) ;
#147 = APPLICATION_PROTOCOL_DEFINITION ( 'international standard', 'config_control_design', 1994, #129 ) ;
#148 = EDGE_LOOP ( 'NONE', ( #82, #22 ) ) ;
#149 = PERSON_AND_ORGANIZATION_ROLE ( 'design_owner' ) ;
#150 = CC_DESIGN_APPROVAL ( #135, ( #63 ) ) ;
#151 = COORDINATED_UNIVERSAL_TIME_OFFSET ( 1, 0, .AHEAD. ) ;
#152 = LOCAL_TIME ( 9, 30, 57.00000000000000000, #279 ) ;
#153 = CYLINDRICAL_SURFACE ( 'NONE', #75, 5.000000000000000000 ) ;
#154 = CIRCLE ( 'NONE', #221, 5.000000000000000000 ) ;
#155 = VERTEX_POINT ( 'NONE', #43 ) ;
#156 = CYLINDRICAL_SURFACE ( 'NONE', #162, 5.000000000000000000 ) ;
#157 = FACE_OUTER_BOUND ( 'NONE', #170, .T. ) ;
#158 = DIRECTION ( 'NONE',  ( 0.0000000000000000000, 1.000000000000000000, 0.0000000000000000000 ) ) ;
#159 = CARTESIAN_POINT ( 'NONE',  ( -4.000000000000000000, 0.0000000000000000000, 0.0000000000000000000 ) ) ;
#160 = FACE_OUTER_BOUND ( 'NONE', #99, .T. ) ;
#161 = ORIENTED_EDGE ( 'NONE', *, *, #66, .T. ) ;
#162 = AXIS2_PLACEMENT_3D ( 'NONE', #238, #242, #105 ) ;
#163 = DIRECTION ( 'NONE',  ( -1.000000000000000000, 0.0000000000000000000, 0.0000000000000000000 ) ) ;
#164 = DIRECTION ( 'NONE',  ( -0.0000000000000000000, -0.0000000000000000000, -1.000000000000000000 ) ) ;
#165 = ORIENTED_EDGE ( 'NONE', *, *, #112, .T. ) ;
#166 = DIRECTION ( 'NONE',  ( 1.000000000000000000, 0.0000000000000000000, 0.0000000000000000000 ) ) ;
#167 = MANIFOLD_SOLID_BREP ( 'Révolution1', #102 ) ;
#168 = CARTESIAN_POINT ( 'NONE',  ( 0.0000000000000000000, 4.999999999999990200, 91.33974596215560400 ) ) ;
#169 = LINE ( 'NONE', #269, #177 ) ;
#170 = EDGE_LOOP ( 'NONE', ( #236, #56, #18, #245 ) ) ;
#171 = CARTESIAN_POINT ( 'NONE',  ( 0.0000000000000000000, 0.0000000000000000000, 0.0000000000000000000 ) ) ;
#172 = AXIS2_PLACEMENT_3D ( 'NONE', #139, #59, #83 ) ;
#173 =( NAMED_UNIT ( * ) PLANE_ANGLE_UNIT ( ) SI_UNIT ( $, .RADIAN. ) );
#174 = EDGE_CURVE ( 'NONE', #6, #155, #154, .T. ) ;
#175 = LOCAL_TIME ( 9, 30, 57.00000000000000000, #151 ) ;
#176 = DESIGN_CONTEXT ( 'detailed design', #129, 'design' ) ;
#177 = VECTOR ( 'NONE', #164, 1000.000000000000000 ) ;
#178 = EDGE_LOOP ( 'NONE', ( #109, #2 ) ) ;
#179 = VECTOR ( 'NONE', #145, 1000.000000000000000 ) ;
#180 = AXIS2_PLACEMENT_3D ( 'NONE', #288, #256, #116 ) ;
#181 = VECTOR ( 'NONE', #120, 1000.000000000000000 ) ;
#182 = SPHERICAL_SURFACE ( 'NONE', #34, 9.999999999999994700 ) ;
#183 = PLANE ( 'NONE',  #42 ) ;
#184 = CC_DESIGN_DATE_AND_TIME_ASSIGNMENT ( #78, #249, ( #63 ) ) ;
#185 = CARTESIAN_POINT ( 'NONE',  ( 0.0000000000000000000, 0.0000000000000000000, 0.0000000000000000000 ) ) ;
#186 = CC_DESIGN_APPROVAL ( #92, ( #199 ) ) ;
#187 = DIRECTION ( 'NONE',  ( 1.000000000000000000, 0.0000000000000000000, 0.0000000000000000000 ) ) ;
#188 = DIRECTION ( 'NONE',  ( -1.000000000000000000, 0.0000000000000000000, -0.0000000000000000000 ) ) ;
#189 = ORIENTED_EDGE ( 'NONE', *, *, #235, .F. ) ;
#190 = EDGE_CURVE ( 'NONE', #89, #54, #203, .T. ) ;
#191 = DIRECTION ( 'NONE',  ( 0.0000000000000000000, 0.0000000000000000000, 1.000000000000000000 ) ) ;
#192 = AXIS2_PLACEMENT_3D ( 'NONE', #27, #214, #79 ) ;
#193 = CARTESIAN_POINT ( 'NONE',  ( 0.0000000000000000000, 0.0000000000000000000, 70.00000000000000000 ) ) ;
#194 = DATE_AND_TIME ( #231, #21 ) ;
#195 = FACE_OUTER_BOUND ( 'NONE', #280, .T. ) ;
#196 = DIRECTION ( 'NONE',  ( 0.0000000000000000000, 0.0000000000000000000, -1.000000000000000000 ) ) ;
#197 = APPROVAL_ROLE ( '' ) ;
#198 = ORIENTED_EDGE ( 'NONE', *, *, #104, .F. ) ;
#199 = PRODUCT_DEFINITION_FORMATION_WITH_SPECIFIED_SOURCE ( 'ANY', '', #141, .NOT_KNOWN. ) ;
#200 = PERSON_AND_ORGANIZATION_ROLE ( 'creator' ) ;
#201 = APPROVAL_PERSON_ORGANIZATION ( #143, #135, #69 ) ;
#202 =( NAMED_UNIT ( * ) SI_UNIT ( $, .STERADIAN. ) SOLID_ANGLE_UNIT ( ) );
#203 = CIRCLE ( 'NONE', #4, 5.000000000000000000 ) ;
#204 = AXIS2_PLACEMENT_3D ( 'NONE', #37, #35, #65 ) ;
#205 = AXIS2_PLACEMENT_3D ( 'NONE', #185, #216, #96 ) ;
#206 = APPROVAL_DATE_TIME ( #30, #135 ) ;
#207 = PERSON_AND_ORGANIZATION ( #9, #289 ) ;
#208 = CC_DESIGN_PERSON_AND_ORGANIZATION_ASSIGNMENT ( #131, #110, ( #199 ) ) ;
#209 = CIRCLE ( 'NONE', #205, 4.000000000000000000 ) ;
#210 = EDGE_CURVE ( 'NONE', #290, #71, #115, .T. ) ;
#211 = DIRECTION ( 'NONE',  ( -0.0000000000000000000, -0.0000000000000000000, -1.000000000000000000 ) ) ;
#212 = CARTESIAN_POINT ( 'NONE',  ( 0.0000000000000000000, -1.224646799147352900E-015, 109.9999999999999900 ) ) ;
#213 = VERTEX_POINT ( 'NONE', #64 ) ;
#214 = DIRECTION ( 'NONE',  ( -0.0000000000000000000, -0.0000000000000000000, -1.000000000000000000 ) ) ;
#215 = AXIS2_PLACEMENT_3D ( 'NONE', #281, #29, #187 ) ;
#216 = DIRECTION ( 'NONE',  ( 0.0000000000000000000, 0.0000000000000000000, -1.000000000000000000 ) ) ;
#217 = DIRECTION ( 'NONE',  ( 0.0000000000000000000, 1.000000000000000000, 0.0000000000000000000 ) ) ;
#218 = FACE_OUTER_BOUND ( 'NONE', #178, .T. ) ;
#219 = CARTESIAN_POINT ( 'NONE',  ( 0.0000000000000000000, 0.0000000000000000000, 99.99999999999998600 ) ) ;
#220 = DIRECTION ( 'NONE',  ( -1.000000000000000000, 1.224646799147353200E-016, 2.249639673992786700E-032 ) ) ;
#221 = AXIS2_PLACEMENT_3D ( 'NONE', #293, #298, #166 ) ;
#222 = MECHANICAL_CONTEXT ( 'NONE', #15, 'mechanical' ) ;
#223 = DATE_AND_TIME ( #94, #152 ) ;
#224 = PERSON_AND_ORGANIZATION ( #9, #289 ) ;
#225 = SECURITY_CLASSIFICATION_LEVEL ( 'unclassified' ) ;
#226 = ADVANCED_BREP_SHAPE_REPRESENTATION ( 'BrasBas_Nano_Un_sldprt', ( #167, #285 ), #250 ) ;
#227 = LINE ( 'NONE', #264, #179 ) ;
#228 = ORIENTED_EDGE ( 'NONE', *, *, #253, .T. ) ;
#229 = ORIENTED_EDGE ( 'NONE', *, *, #174, .T. ) ;
#230 = AXIS2_PLACEMENT_3D ( 'NONE', #13, #220, #127 ) ;
#231 = CALENDAR_DATE ( 2018, 10, 4 ) ;
#232 = UNCERTAINTY_MEASURE_WITH_UNIT (LENGTH_MEASURE( 1.000000000000000100E-005 ), #243, 'distance_accuracy_value', 'NONE');
#233 = DIRECTION ( 'NONE',  ( -1.000000000000000000, 0.0000000000000000000, 0.0000000000000000000 ) ) ;
#234 = AXIS2_PLACEMENT_3D ( 'NONE', #107, #142, #84 ) ;
#235 = EDGE_CURVE ( 'NONE', #70, #11, #122, .T. ) ;
#236 = ORIENTED_EDGE ( 'NONE', *, *, #253, .F. ) ;
#237 = CARTESIAN_POINT ( 'NONE',  ( 0.0000000000000000000, 0.0000000000000000000, 0.0000000000000000000 ) ) ;
#238 = CARTESIAN_POINT ( 'NONE',  ( 0.0000000000000000000, 0.0000000000000000000, 99.99999999999998600 ) ) ;
#239 = DIRECTION ( 'NONE',  ( -1.000000000000000000, 0.0000000000000000000, 0.0000000000000000000 ) ) ;
#240 = EDGE_LOOP ( 'NONE', ( #259, #161, #265, #26, #275 ) ) ;
#241 = EDGE_CURVE ( 'NONE', #300, #45, #10, .T. ) ;
#242 = DIRECTION ( 'NONE',  ( -0.0000000000000000000, -0.0000000000000000000, -1.000000000000000000 ) ) ;
#243 =( LENGTH_UNIT ( ) NAMED_UNIT ( * ) SI_UNIT ( .MILLI., .METRE. ) );
#244 = LOCAL_TIME ( 9, 30, 57.00000000000000000, #88 ) ;
#245 = ORIENTED_EDGE ( 'NONE', *, *, #235, .T. ) ;
#246 = AXIS2_PLACEMENT_3D ( 'NONE', #171, #191, #294 ) ;
#247 = DATE_TIME_ROLE ( 'creation_date' ) ;
#248 = EDGE_CURVE ( 'NONE', #6, #89, #169, .T. ) ;
#249 = DATE_TIME_ROLE ( 'classification_date' ) ;
#250 =( GEOMETRIC_REPRESENTATION_CONTEXT ( 3 ) GLOBAL_UNCERTAINTY_ASSIGNED_CONTEXT ( ( #232 ) ) GLOBAL_UNIT_ASSIGNED_CONTEXT ( ( #243, #173, #202 ) ) REPRESENTATION_CONTEXT ( 'NONE', 'WORKASPACE' ) );
#251 = ORIENTED_EDGE ( 'NONE', *, *, #241, .F. ) ;
#252 = ORIENTED_EDGE ( 'NONE', *, *, #66, .F. ) ;
#253 = EDGE_CURVE ( 'NONE', #290, #11, #297, .T. ) ;
#254 = ORIENTED_EDGE ( 'NONE', *, *, #248, .F. ) ;
#255 = EDGE_CURVE ( 'NONE', #71, #70, #227, .T. ) ;
#256 = DIRECTION ( 'NONE',  ( -0.0000000000000000000, -0.0000000000000000000, -1.000000000000000000 ) ) ;
#257 = CARTESIAN_POINT ( 'NONE',  ( 0.0000000000000000000, 0.0000000000000000000, 99.99999999999998600 ) ) ;
#258 = CYLINDRICAL_SURFACE ( 'NONE', #180, 4.000000000000000000 ) ;
#259 = ORIENTED_EDGE ( 'NONE', *, *, #97, .T. ) ;
#260 = CARTESIAN_POINT ( 'NONE',  ( 0.0000000000000000000, 0.0000000000000000000, 91.33974596215560400 ) ) ;
#261 = CC_DESIGN_SECURITY_CLASSIFICATION ( #63, ( #199 ) ) ;
#262 = CARTESIAN_POINT ( 'NONE',  ( 5.000000000000000000, 6.123233995736765300E-016, 0.0000000000000000000 ) ) ;
#263 = COORDINATED_UNIVERSAL_TIME_OFFSET ( 1, 0, .AHEAD. ) ;
#264 = CARTESIAN_POINT ( 'NONE',  ( -4.000000000000000000, 0.0000000000000000000, 70.00000000000000000 ) ) ;
#265 = ORIENTED_EDGE ( 'NONE', *, *, #248, .T. ) ;
#266 = EDGE_LOOP ( 'NONE', ( #254, #229, #272, #53, #77 ) ) ;
#267 = DIRECTION ( 'NONE',  ( 1.000000000000000000, 0.0000000000000000000, 0.0000000000000000000 ) ) ;
#268 = CARTESIAN_POINT ( 'NONE',  ( 4.000000000000000000, 4.898587196589412800E-016, 70.00000000000000000 ) ) ;
#269 = CARTESIAN_POINT ( 'NONE',  ( 5.000000000000000000, 6.123233995736765300E-016, 99.99999999999998600 ) ) ;
#270 = FACE_OUTER_BOUND ( 'NONE', #8, .T. ) ;
#271 = AXIS2_PLACEMENT_3D ( 'NONE', #193, #295, #144 ) ;
#272 = ORIENTED_EDGE ( 'NONE', *, *, #60, .T. ) ;
#273 = APPROVAL_STATUS ( 'not_yet_approved' ) ;
#274 = VECTOR ( 'NONE', #103, 1000.000000000000000 ) ;
#275 = ORIENTED_EDGE ( 'NONE', *, *, #276, .F. ) ;
#276 = EDGE_CURVE ( 'NONE', #213, #54, #55, .T. ) ;
#277 = PRODUCT_RELATED_PRODUCT_CATEGORY ( 'detail', '', ( #141 ) ) ;
#278 = PERSON_AND_ORGANIZATION ( #9, #289 ) ;
#279 = COORDINATED_UNIVERSAL_TIME_OFFSET ( 1, 0, .AHEAD. ) ;
#280 = EDGE_LOOP ( 'NONE', ( #292, #228, #62, #123 ) ) ;
#281 = CARTESIAN_POINT ( 'NONE',  ( 0.0000000000000000000, 0.0000000000000000000, 91.33974596215560400 ) ) ;
#282 = CIRCLE ( 'NONE', #111, 5.000000000000000000 ) ;
#283 = DIRECTION ( 'NONE',  ( -1.000000000000000000, 0.0000000000000000000, 0.0000000000000000000 ) ) ;
#284 = ORIENTED_EDGE ( 'NONE', *, *, #60, .F. ) ;
#285 = AXIS2_PLACEMENT_3D ( 'NONE', #87, #124, #19 ) ;
#286 = CARTESIAN_POINT ( 'NONE',  ( 0.0000000000000000000, 0.0000000000000000000, 99.99999999999998600 ) ) ;
#287 = CARTESIAN_POINT ( 'NONE',  ( 0.0000000000000000000, 0.0000000000000000000, 70.00000000000000000 ) ) ;
#288 = CARTESIAN_POINT ( 'NONE',  ( 0.0000000000000000000, 0.0000000000000000000, 70.00000000000000000 ) ) ;
#289 = ORGANIZATION ( 'UNSPECIFIED', 'UNSPECIFIED', '' ) ;
#290 = VERTEX_POINT ( 'NONE', #268 ) ;
#291 = ADVANCED_FACE ( 'NONE', ( #51 ), #156, .T. ) ;
#292 = ORIENTED_EDGE ( 'NONE', *, *, #210, .F. ) ;
#293 = CARTESIAN_POINT ( 'NONE',  ( 0.0000000000000000000, 0.0000000000000000000, 91.33974596215560400 ) ) ;
#294 = DIRECTION ( 'NONE',  ( 1.000000000000000000, 0.0000000000000000000, 0.0000000000000000000 ) ) ;
#295 = DIRECTION ( 'NONE',  ( 0.0000000000000000000, 0.0000000000000000000, -1.000000000000000000 ) ) ;
#296 = AXIS2_PLACEMENT_3D ( 'NONE', #287, #57, #163 ) ;
#297 = LINE ( 'NONE', #119, #274 ) ;
#298 = DIRECTION ( 'NONE',  ( -0.0000000000000000000, -0.0000000000000000000, -1.000000000000000000 ) ) ;
#299 = CIRCLE ( 'NONE', #296, 4.000000000000000000 ) ;
#300 = VERTEX_POINT ( 'NONE', #168 ) ;
#301 = APPLICATION_PROTOCOL_DEFINITION ( 'international standard', 'config_control_design', 1994, #15 ) ;
ENDSEC;
END-ISO-10303-21;
