ISO-10303-21;
HEADER;
FILE_DESCRIPTION (( 'STEP AP203' ),
    '1' );
FILE_NAME ('BrasHaut_Nano_Un_sldprt.STEP',
    '2018-04-10T07:30:59',
    ( '' ),
    ( '' ),
    'SwSTEP 2.0',
    'SolidWorks 2017',
    '' );
FILE_SCHEMA (( 'CONFIG_CONTROL_DESIGN' ));
ENDSEC;

DATA;
#1 = CALENDAR_DATE ( 2018, 10, 4 ) ;
#2 = AXIS2_PLACEMENT_3D ( 'NONE', #39, #123, #142 ) ;
#3 = EDGE_LOOP ( 'NONE', ( #122, #62, #21, #125, #118 ) ) ;
#4 = AXIS2_PLACEMENT_3D ( 'NONE', #131, #29, #128 ) ;
#5 = LOCAL_TIME ( 9, 30, 59.00000000000000000, #167 ) ;
#6 = DIRECTION ( 'NONE',  ( 0.0000000000000000000, 0.0000000000000000000, 1.000000000000000000 ) ) ;
#7 = CARTESIAN_POINT ( 'NONE',  ( 0.0000000000000000000, 0.0000000000000000000, 93.07179676972448600 ) ) ;
#8 = DIRECTION ( 'NONE',  ( 0.0000000000000000000, 0.0000000000000000000, 1.000000000000000000 ) ) ;
#9 = DIRECTION ( 'NONE',  ( 1.000000000000000000, 0.0000000000000000000, 0.0000000000000000000 ) ) ;
#10 = DATE_TIME_ROLE ( 'creation_date' ) ;
#11 = APPROVAL_ROLE ( '' ) ;
#12 = AXIS2_PLACEMENT_3D ( 'NONE', #198, #6, #9 ) ;
#13 = PERSON_AND_ORGANIZATION ( #172, #109 ) ;
#14 = APPLICATION_CONTEXT ( 'configuration controlled 3d designs of mechanical parts and assemblies' ) ;
#15 = ORIENTED_EDGE ( 'NONE', *, *, #23, .F. ) ;
#16 =( GEOMETRIC_REPRESENTATION_CONTEXT ( 3 ) GLOBAL_UNCERTAINTY_ASSIGNED_CONTEXT ( ( #111 ) ) GLOBAL_UNIT_ASSIGNED_CONTEXT ( ( #105, #36, #70 ) ) REPRESENTATION_CONTEXT ( 'NONE', 'WORKASPACE' ) );
#17 = SHAPE_DEFINITION_REPRESENTATION ( #58, #136 ) ;
#18 = ORIENTED_EDGE ( 'NONE', *, *, #19, .T. ) ;
#19 = EDGE_CURVE ( 'NONE', #171, #221, #28, .T. ) ;
#20 = PERSON_AND_ORGANIZATION ( #172, #109 ) ;
#21 = ORIENTED_EDGE ( 'NONE', *, *, #19, .F. ) ;
#22 = CARTESIAN_POINT ( 'NONE',  ( -4.000000000000000000, 0.0000000000000000000, 100.0000000000000000 ) ) ;
#23 = EDGE_CURVE ( 'NONE', #171, #78, #200, .T. ) ;
#24 = COORDINATED_UNIVERSAL_TIME_OFFSET ( 1, 0, .AHEAD. ) ;
#25 = VERTEX_POINT ( 'NONE', #94 ) ;
#26 = DIRECTION ( 'NONE',  ( 1.000000000000000000, 0.0000000000000000000, 0.0000000000000000000 ) ) ;
#27 = DATE_AND_TIME ( #74, #160 ) ;
#28 = CIRCLE ( 'NONE', #112, 4.000000000000000000 ) ;
#29 = DIRECTION ( 'NONE',  ( 0.0000000000000000000, 0.0000000000000000000, 1.000000000000000000 ) ) ;
#30 = ADVANCED_FACE ( 'NONE', ( #34 ), #179, .T. ) ;
#31 = DIRECTION ( 'NONE',  ( 1.000000000000000000, 0.0000000000000000000, 0.0000000000000000000 ) ) ;
#32 = DIRECTION ( 'NONE',  ( 0.0000000000000000000, 0.0000000000000000000, 1.000000000000000000 ) ) ;
#33 = APPROVAL_PERSON_ORGANIZATION ( #81, #159, #206 ) ;
#34 = FACE_OUTER_BOUND ( 'NONE', #152, .T. ) ;
#35 = CLOSED_SHELL ( 'NONE', ( #165, #30, #47, #127, #83 ) ) ;
#36 =( NAMED_UNIT ( * ) PLANE_ANGLE_UNIT ( ) SI_UNIT ( $, .RADIAN. ) );
#37 = AXIS2_PLACEMENT_3D ( 'NONE', #86, #149, #31 ) ;
#38 = COORDINATED_UNIVERSAL_TIME_OFFSET ( 1, 0, .AHEAD. ) ;
#39 = CARTESIAN_POINT ( 'NONE',  ( 0.0000000000000000000, 0.0000000000000000000, 100.0000000000000000 ) ) ;
#40 = PERSON_AND_ORGANIZATION ( #172, #109 ) ;
#41 = EDGE_LOOP ( 'NONE', ( #44, #138, #119, #209 ) ) ;
#42 = MANIFOLD_SOLID_BREP ( 'Révolution1', #35 ) ;
#43 = COORDINATED_UNIVERSAL_TIME_OFFSET ( 1, 0, .AHEAD. ) ;
#44 = ORIENTED_EDGE ( 'NONE', *, *, #117, .F. ) ;
#45 = CARTESIAN_POINT ( 'NONE',  ( 0.0000000000000000000, 0.0000000000000000000, 100.0000000000000000 ) ) ;
#46 = EDGE_CURVE ( 'NONE', #137, #25, #133, .T. ) ;
#47 = ADVANCED_FACE ( 'NONE', ( #188 ), #124, .T. ) ;
#48 = CARTESIAN_POINT ( 'NONE',  ( 4.000000000000000000, 4.898587196589412800E-016, 0.0000000000000000000 ) ) ;
#49 = VERTEX_POINT ( 'NONE', #113 ) ;
#50 = PLANE ( 'NONE',  #4 ) ;
#51 = PERSON_AND_ORGANIZATION_ROLE ( 'design_supplier' ) ;
#52 = AXIS2_PLACEMENT_3D ( 'NONE', #45, #130, #189 ) ;
#53 = PERSON_AND_ORGANIZATION_ROLE ( 'creator' ) ;
#54 = FACE_OUTER_BOUND ( 'NONE', #174, .T. ) ;
#55 = PRODUCT_DEFINITION_FORMATION_WITH_SPECIFIED_SOURCE ( 'ANY', '', #185, .NOT_KNOWN. ) ;
#56 = DATE_AND_TIME ( #154, #204 ) ;
#57 = CIRCLE ( 'NONE', #208, 8.000000000000007100 ) ;
#58 = PRODUCT_DEFINITION_SHAPE ( 'NONE', 'NONE',  #72 ) ;
#59 = FACE_OUTER_BOUND ( 'NONE', #41, .T. ) ;
#60 = EDGE_CURVE ( 'NONE', #25, #171, #162, .T. ) ;
#61 = APPROVAL_PERSON_ORGANIZATION ( #13, #82, #215 ) ;
#62 = ORIENTED_EDGE ( 'NONE', *, *, #191, .F. ) ;
#63 = DIRECTION ( 'NONE',  ( 0.0000000000000000000, 1.000000000000000000, 0.0000000000000000000 ) ) ;
#64 = DIRECTION ( 'NONE',  ( 0.0000000000000000000, 0.0000000000000000000, 1.000000000000000000 ) ) ;
#65 = CARTESIAN_POINT ( 'NONE',  ( 0.0000000000000000000, 0.0000000000000000000, 100.0000000000000000 ) ) ;
#66 = DIRECTION ( 'NONE',  ( 1.000000000000000000, 0.0000000000000000000, 0.0000000000000000000 ) ) ;
#67 = CARTESIAN_POINT ( 'NONE',  ( -4.000000000000000000, 0.0000000000000000000, 93.07179676972448600 ) ) ;
#68 = DIRECTION ( 'NONE',  ( 1.000000000000000000, 0.0000000000000000000, 0.0000000000000000000 ) ) ;
#69 = VECTOR ( 'NONE', #134, 1000.000000000000000 ) ;
#70 =( NAMED_UNIT ( * ) SI_UNIT ( $, .STERADIAN. ) SOLID_ANGLE_UNIT ( ) );
#71 = ORIENTED_EDGE ( 'NONE', *, *, #46, .F. ) ;
#72 = PRODUCT_DEFINITION ( 'UNKNOWN', '', #55, #95 ) ;
#73 = SECURITY_CLASSIFICATION_LEVEL ( 'unclassified' ) ;
#74 = CALENDAR_DATE ( 2018, 10, 4 ) ;
#75 = CC_DESIGN_PERSON_AND_ORGANIZATION_ASSIGNMENT ( #79, #53, ( #72 ) ) ;
#76 = APPROVAL_PERSON_ORGANIZATION ( #40, #98, #11 ) ;
#77 = CIRCLE ( 'NONE', #37, 4.000000000000000000 ) ;
#78 = VERTEX_POINT ( 'NONE', #169 ) ;
#79 = PERSON_AND_ORGANIZATION ( #172, #109 ) ;
#80 = AXIS2_PLACEMENT_3D ( 'NONE', #196, #181, #182 ) ;
#81 = PERSON_AND_ORGANIZATION ( #172, #109 ) ;
#82 = APPROVAL ( #100, 'UNSPECIFIED' ) ;
#83 = ADVANCED_FACE ( 'NONE', ( #54 ), #157, .T. ) ;
#84 = ORIENTED_EDGE ( 'NONE', *, *, #60, .T. ) ;
#85 = APPLICATION_CONTEXT ( 'configuration controlled 3d designs of mechanical parts and assemblies' ) ;
#86 = CARTESIAN_POINT ( 'NONE',  ( 0.0000000000000000000, 0.0000000000000000000, 0.0000000000000000000 ) ) ;
#87 = APPROVAL_DATE_TIME ( #56, #82 ) ;
#88 = APPLICATION_PROTOCOL_DEFINITION ( 'international standard', 'config_control_design', 1994, #85 ) ;
#89 = PERSON_AND_ORGANIZATION_ROLE ( 'classification_officer' ) ;
#90 = APPROVAL_DATE_TIME ( #101, #159 ) ;
#91 = DATE_TIME_ROLE ( 'classification_date' ) ;
#92 = AXIS2_PLACEMENT_3D ( 'NONE', #218, #147, #68 ) ;
#93 = CC_DESIGN_DATE_AND_TIME_ASSIGNMENT ( #121, #91, ( #210 ) ) ;
#94 = CARTESIAN_POINT ( 'NONE',  ( 0.0000000000000000000, 3.999999999999996400, 93.07179676972448600 ) ) ;
#95 = DESIGN_CONTEXT ( 'detailed design', #14, 'design' ) ;
#96 = CIRCLE ( 'NONE', #211, 4.000000000000000000 ) ;
#97 = DIRECTION ( 'NONE',  ( 1.000000000000000000, 0.0000000000000000000, -0.0000000000000000000 ) ) ;
#98 = APPROVAL ( #186, 'UNSPECIFIED' ) ;
#99 = CALENDAR_DATE ( 2018, 10, 4 ) ;
#100 = APPROVAL_STATUS ( 'not_yet_approved' ) ;
#101 = DATE_AND_TIME ( #99, #156 ) ;
#102 = CIRCLE ( 'NONE', #92, 4.000000000000000000 ) ;
#103 = CC_DESIGN_PERSON_AND_ORGANIZATION_ASSIGNMENT ( #194, #148, ( #185 ) ) ;
#104 = DIRECTION ( 'NONE',  ( 1.000000000000000000, 1.224646799147353200E-016, 3.651352980448190200E-032 ) ) ;
#105 =( LENGTH_UNIT ( ) NAMED_UNIT ( * ) SI_UNIT ( .MILLI., .METRE. ) );
#106 = MECHANICAL_CONTEXT ( 'NONE', #85, 'mechanical' ) ;
#107 = CC_DESIGN_APPROVAL ( #159, ( #210 ) ) ;
#108 = CARTESIAN_POINT ( 'NONE',  ( 0.0000000000000000000, 0.0000000000000000000, 93.07179676972448600 ) ) ;
#109 = ORGANIZATION ( 'UNSPECIFIED', 'UNSPECIFIED', '' ) ;
#110 = ORIENTED_EDGE ( 'NONE', *, *, #140, .F. ) ;
#111 = UNCERTAINTY_MEASURE_WITH_UNIT (LENGTH_MEASURE( 1.000000000000000100E-005 ), #105, 'distance_accuracy_value', 'NONE');
#112 = AXIS2_PLACEMENT_3D ( 'NONE', #108, #178, #158 ) ;
#113 = CARTESIAN_POINT ( 'NONE',  ( 0.0000000000000000000, -1.895386059809167600E-015, 108.0000000000000100 ) ) ;
#114 = DATE_AND_TIME ( #1, #5 ) ;
#115 = APPLICATION_PROTOCOL_DEFINITION ( 'international standard', 'config_control_design', 1994, #14 ) ;
#116 = SPHERICAL_SURFACE ( 'NONE', #52, 8.000000000000007100 ) ;
#117 = EDGE_CURVE ( 'NONE', #49, #25, #57, .T. ) ;
#118 = ORIENTED_EDGE ( 'NONE', *, *, #219, .T. ) ;
#119 = ORIENTED_EDGE ( 'NONE', *, *, #191, .T. ) ;
#120 = CC_DESIGN_PERSON_AND_ORGANIZATION_ASSIGNMENT ( #187, #132, ( #55 ) ) ;
#121 = DATE_AND_TIME ( #170, #212 ) ;
#122 = ORIENTED_EDGE ( 'NONE', *, *, #192, .F. ) ;
#123 = DIRECTION ( 'NONE',  ( -0.0000000000000000000, -0.0000000000000000000, -1.000000000000000000 ) ) ;
#124 = CYLINDRICAL_SURFACE ( 'NONE', #80, 4.000000000000000000 ) ;
#125 = ORIENTED_EDGE ( 'NONE', *, *, #23, .T. ) ;
#126 = CC_DESIGN_PERSON_AND_ORGANIZATION_ASSIGNMENT ( #20, #51, ( #55 ) ) ;
#127 = ADVANCED_FACE ( 'NONE', ( #143 ), #50, .F. ) ;
#128 = DIRECTION ( 'NONE',  ( 1.000000000000000000, 0.0000000000000000000, -0.0000000000000000000 ) ) ;
#129 = VERTEX_POINT ( 'NONE', #48 ) ;
#130 = DIRECTION ( 'NONE',  ( 1.000000000000000000, 0.0000000000000000000, -0.0000000000000000000 ) ) ;
#131 = CARTESIAN_POINT ( 'NONE',  ( 0.0000000000000000000, 0.0000000000000000000, 0.0000000000000000000 ) ) ;
#132 = PERSON_AND_ORGANIZATION_ROLE ( 'creator' ) ;
#133 = CIRCLE ( 'NONE', #12, 4.000000000000000000 ) ;
#134 = DIRECTION ( 'NONE',  ( -0.0000000000000000000, -0.0000000000000000000, -1.000000000000000000 ) ) ;
#135 = DIRECTION ( 'NONE',  ( -1.224646799147353500E-016, 1.000000000000000000, 0.0000000000000000000 ) ) ;
#136 = ADVANCED_BREP_SHAPE_REPRESENTATION ( 'BrasHaut_Nano_Un_sldprt', ( #42, #202 ), #16 ) ;
#137 = VERTEX_POINT ( 'NONE', #184 ) ;
#138 = ORIENTED_EDGE ( 'NONE', *, *, #140, .T. ) ;
#139 = AXIS2_PLACEMENT_3D ( 'NONE', #65, #104, #135 ) ;
#140 = EDGE_CURVE ( 'NONE', #49, #221, #151, .T. ) ;
#141 = DIRECTION ( 'NONE',  ( -0.0000000000000000000, -0.0000000000000000000, -1.000000000000000000 ) ) ;
#142 = DIRECTION ( 'NONE',  ( -1.000000000000000000, 0.0000000000000000000, 0.0000000000000000000 ) ) ;
#143 = FACE_OUTER_BOUND ( 'NONE', #161, .T. ) ;
#144 = ORIENTED_EDGE ( 'NONE', *, *, #176, .T. ) ;
#145 = CC_DESIGN_SECURITY_CLASSIFICATION ( #210, ( #55 ) ) ;
#146 = PERSON_AND_ORGANIZATION ( #172, #109 ) ;
#147 = DIRECTION ( 'NONE',  ( 0.0000000000000000000, 0.0000000000000000000, 1.000000000000000000 ) ) ;
#148 = PERSON_AND_ORGANIZATION_ROLE ( 'design_owner' ) ;
#149 = DIRECTION ( 'NONE',  ( 0.0000000000000000000, 0.0000000000000000000, 1.000000000000000000 ) ) ;
#150 = CC_DESIGN_PERSON_AND_ORGANIZATION_ASSIGNMENT ( #146, #89, ( #210 ) ) ;
#151 = CIRCLE ( 'NONE', #139, 8.000000000000007100 ) ;
#152 = EDGE_LOOP ( 'NONE', ( #71, #177, #144, #15, #183 ) ) ;
#153 = DIRECTION ( 'NONE',  ( 1.000000000000000000, 0.0000000000000000000, 0.0000000000000000000 ) ) ;
#154 = CALENDAR_DATE ( 2018, 10, 4 ) ;
#155 = VECTOR ( 'NONE', #141, 1000.000000000000000 ) ;
#156 = LOCAL_TIME ( 9, 30, 59.00000000000000000, #24 ) ;
#157 = SPHERICAL_SURFACE ( 'NONE', #214, 8.000000000000007100 ) ;
#158 = DIRECTION ( 'NONE',  ( 1.000000000000000000, 0.0000000000000000000, 0.0000000000000000000 ) ) ;
#159 = APPROVAL ( #220, 'UNSPECIFIED' ) ;
#160 = LOCAL_TIME ( 9, 30, 59.00000000000000000, #38 ) ;
#161 = EDGE_LOOP ( 'NONE', ( #168, #180 ) ) ;
#162 = CIRCLE ( 'NONE', #193, 4.000000000000000000 ) ;
#163 = CC_DESIGN_APPROVAL ( #98, ( #55 ) ) ;
#164 = CARTESIAN_POINT ( 'NONE',  ( 0.0000000000000000000, 0.0000000000000000000, 100.0000000000000000 ) ) ;
#165 = ADVANCED_FACE ( 'NONE', ( #59 ), #116, .T. ) ;
#166 = CARTESIAN_POINT ( 'NONE',  ( 0.0000000000000000000, 0.0000000000000000000, 100.0000000000000000 ) ) ;
#167 = COORDINATED_UNIVERSAL_TIME_OFFSET ( 1, 0, .AHEAD. ) ;
#168 = ORIENTED_EDGE ( 'NONE', *, *, #219, .F. ) ;
#169 = CARTESIAN_POINT ( 'NONE',  ( -4.000000000000000000, 0.0000000000000000000, 0.0000000000000000000 ) ) ;
#170 = CALENDAR_DATE ( 2018, 10, 4 ) ;
#171 = VERTEX_POINT ( 'NONE', #67 ) ;
#172 = PERSON ( 'UNSPECIFIED', 'UNSPECIFIED', 'UNSPECIFIED', ('UNSPECIFIED'), ('UNSPECIFIED'), ('UNSPECIFIED') ) ;
#173 = PRODUCT_RELATED_PRODUCT_CATEGORY ( 'detail', '', ( #185 ) ) ;
#174 = EDGE_LOOP ( 'NONE', ( #110, #175, #84, #18 ) ) ;
#175 = ORIENTED_EDGE ( 'NONE', *, *, #117, .T. ) ;
#176 = EDGE_CURVE ( 'NONE', #129, #78, #77, .T. ) ;
#177 = ORIENTED_EDGE ( 'NONE', *, *, #192, .T. ) ;
#178 = DIRECTION ( 'NONE',  ( 0.0000000000000000000, 0.0000000000000000000, 1.000000000000000000 ) ) ;
#179 = CYLINDRICAL_SURFACE ( 'NONE', #2, 4.000000000000000000 ) ;
#180 = ORIENTED_EDGE ( 'NONE', *, *, #176, .F. ) ;
#181 = DIRECTION ( 'NONE',  ( -0.0000000000000000000, -0.0000000000000000000, -1.000000000000000000 ) ) ;
#182 = DIRECTION ( 'NONE',  ( -1.000000000000000000, 0.0000000000000000000, 0.0000000000000000000 ) ) ;
#183 = ORIENTED_EDGE ( 'NONE', *, *, #60, .F. ) ;
#184 = CARTESIAN_POINT ( 'NONE',  ( 4.000000000000000000, 4.898587196589412800E-016, 93.07179676972448600 ) ) ;
#185 = PRODUCT ( 'BrasHaut_Nano_Un_sldprt', 'BrasHaut_Nano_Un_sldprt', '', ( #106 ) ) ;
#186 = APPROVAL_STATUS ( 'not_yet_approved' ) ;
#187 = PERSON_AND_ORGANIZATION ( #172, #109 ) ;
#188 = FACE_OUTER_BOUND ( 'NONE', #3, .T. ) ;
#189 = DIRECTION ( 'NONE',  ( 0.0000000000000000000, 1.000000000000000000, 0.0000000000000000000 ) ) ;
#190 = CARTESIAN_POINT ( 'NONE',  ( 4.000000000000000000, 4.898587196589412800E-016, 100.0000000000000000 ) ) ;
#191 = EDGE_CURVE ( 'NONE', #221, #137, #102, .T. ) ;
#192 = EDGE_CURVE ( 'NONE', #137, #129, #195, .T. ) ;
#193 = AXIS2_PLACEMENT_3D ( 'NONE', #7, #8, #26 ) ;
#194 = PERSON_AND_ORGANIZATION ( #172, #109 ) ;
#195 = LINE ( 'NONE', #190, #69 ) ;
#196 = CARTESIAN_POINT ( 'NONE',  ( 0.0000000000000000000, 0.0000000000000000000, 100.0000000000000000 ) ) ;
#197 = CC_DESIGN_DATE_AND_TIME_ASSIGNMENT ( #27, #10, ( #72 ) ) ;
#198 = CARTESIAN_POINT ( 'NONE',  ( 0.0000000000000000000, 0.0000000000000000000, 93.07179676972448600 ) ) ;
#199 = CARTESIAN_POINT ( 'NONE',  ( 0.0000000000000000000, 0.0000000000000000000, 0.0000000000000000000 ) ) ;
#200 = LINE ( 'NONE', #22, #155 ) ;
#201 = CARTESIAN_POINT ( 'NONE',  ( 0.0000000000000000000, 0.0000000000000000000, 0.0000000000000000000 ) ) ;
#202 = AXIS2_PLACEMENT_3D ( 'NONE', #199, #205, #153 ) ;
#203 = CARTESIAN_POINT ( 'NONE',  ( 4.898587196589411800E-016, -3.999999999999996400, 93.07179676972448600 ) ) ;
#204 = LOCAL_TIME ( 9, 30, 59.00000000000000000, #43 ) ;
#205 = DIRECTION ( 'NONE',  ( 0.0000000000000000000, 0.0000000000000000000, 1.000000000000000000 ) ) ;
#206 = APPROVAL_ROLE ( '' ) ;
#207 = APPROVAL_DATE_TIME ( #114, #98 ) ;
#208 = AXIS2_PLACEMENT_3D ( 'NONE', #166, #213, #64 ) ;
#209 = ORIENTED_EDGE ( 'NONE', *, *, #46, .T. ) ;
#210 = SECURITY_CLASSIFICATION ( '', '', #73 ) ;
#211 = AXIS2_PLACEMENT_3D ( 'NONE', #201, #32, #66 ) ;
#212 = LOCAL_TIME ( 9, 30, 59.00000000000000000, #217 ) ;
#213 = DIRECTION ( 'NONE',  ( -1.000000000000000000, 0.0000000000000000000, 0.0000000000000000000 ) ) ;
#214 = AXIS2_PLACEMENT_3D ( 'NONE', #164, #97, #63 ) ;
#215 = APPROVAL_ROLE ( '' ) ;
#216 = CC_DESIGN_APPROVAL ( #82, ( #72 ) ) ;
#217 = COORDINATED_UNIVERSAL_TIME_OFFSET ( 1, 0, .AHEAD. ) ;
#218 = CARTESIAN_POINT ( 'NONE',  ( 0.0000000000000000000, 0.0000000000000000000, 93.07179676972448600 ) ) ;
#219 = EDGE_CURVE ( 'NONE', #78, #129, #96, .T. ) ;
#220 = APPROVAL_STATUS ( 'not_yet_approved' ) ;
#221 = VERTEX_POINT ( 'NONE', #203 ) ;
ENDSEC;
END-ISO-10303-21;
